Aerosmith - Just Push Play Chords & Tabs

 

Just Push Play Chords & Tabs

Aerosmith Chords & Tabs

Version: 4 Type: Tab 0 ratings
1 star 2 stars 3 stars 4 stars 5 stars
comments

Just Push Play Tab

Just Push Play
From The Album Just Push Play

Drop D Tuning

INTRO
|-10-10-10-10-10-10-10---10--10\9-9/10-----------|
|-x--x--x--x--x--x--x----x---x------x------------|
|-7--7--7--7--7--7--7----7---7--6-6-7------------|
|------------------------------------------------|Listen for timing
|------------------------------------------------|
|------------------------------------------------|

While the octaves are being played the other guitar does this
|----------------5-------------------------------|
|1---------------7-------------------------------|
|1---------------7-------------------------------|
|1-----------------------------------------------|
|------------------------------------------------|
|------------------------------------------------|
[ Tab from: http://www.guitartabs.cc/tabs/a/aerosmith/just_push_play_tab_ver_4.html ]
~~~~~~~~~~~~~~~~~~~~~~~~~~~~~~~~~~~~~~~~~~~~~~~~~~~~~~~~~~~~~~~~~~~~~~~~~~
MAIN RIFF AND VERSE
|----------------------------|     |---------------------------|
|----------------------------|     |---------------------------|
|----------------------------|     |---------------------------|
|----------------------------| and |---------------------------|
|--5-6-7--5-0----5-3-0-0-----|     |--5-6-7-5-0---5-4-3-0------|
|--5-6-7------0--5-3-0-0-----|     |--5-6-7-----0-5-4-3-0------|

Play the riff on the left when theres the mih goinin da mon ya
and the regular words- the one on the left
~~~~~~~~~~~~~~~~~~~~~~~~~~~~~~~~~~~~~~~~~~~~~~~~~~~~~~~~~~~~~~~~~~~~~~~~~
INTERLUDE OR WHATEVER
|----------------------------|
|----------------------------|                  The Part With the B side
|----------------------------|               And dont get any on ya
|----------Reapeat As Nesessary
|-8-7-5----------------------|
|-5-5-5----------------------|
~~~~~~~~~~~~~~~~~~~~~~~~~~~~~~~~~~~~~~~~~~~~~~~~~~~~~~~~~~~~~~~~~~~~~~~~~~
CHORUS
Use the main riffs for the Just Push Play Part
~~~~~~~~~~~~~~~~~~~~~~~~~~~~~~~~~~~~~~~~~~~~~~~~~~~~~~~~~~~~~~~~~~~~~~~~~
BRIDGE
|----------------------------|
|----------------------------|
|----------------------------|
|----------------------------|
|-5/12--5/12-----------------|
|-5/12--5/12-----------------|

|12b13--13--10---------------|            You can put it together
|12b13--13--10---------------|
|----------------------------|
|----------------------------|
|----------------------------|
|----------------------------|



"Im just that good"-Me
Comments