Aerosmith - Jaded Chords & Tabs

 

Jaded Chords & Tabs

Aerosmith Chords & Tabs

Version: 3 Type: Tab 0 ratings
1 star 2 stars 3 stars 4 stars 5 stars
comments

Jaded Tab

"JADED"
AEROSMITH:JUST PUSH PLAY(ALBUM)
BY:MARIO RUIZ GAYTAN(KIRKRUIZ)


/-----------------------------------------------------------------------------------------------
/-----------------------------------------------------------------------------------------------
/---------------------------------------------------------------4-4---6-6-----------------------
/--6-6-6--4-6-4------6(B/V)-6---4-6-4------6-(B/V)-6--4-6-4-------------------------------------
/-----------------------------------------------------------------------------------------------
/-----------------------------------------------------------------------------------------------


hey,jj-jaded,youve gott youmamas style.......................................


/--0-0------0-0--------0-0--------------2-2-2-2-2-2-2-2-------0------0--0--------0-0----------0-0-----
/--2---------2----------2---------------3-3-3-3-3-3-3-3-------0------2-----------2------------2-------
/--2---------2----------2---------------2-2-2-2-2-2-2-2-------0------2-----------2------------2-------
/--2---------2----------2---------------0-0-0-0-0-0-0-0-------0------2-----------2------------2-------
/--0---------0----------0--------------------------------------------0-----------0------------0-------
/-----------------------------------------------------------------------------------------------------



/--2-2-2-2-2-2-2-----x-x-----2-2-2-2-2-2-2---2-2-2-2-2-2-2-2---x-x----2-2-2-2-2-2-2---2-------
/--3-3-3-3-3-3-3-----x-x-----2-2-2-2-2-2-2---3-3-3-3-3-3-3-3---x-x----2-2-2-2-2-2-2---3-------
/--2-2-2-2-2-2-2-----x-x-----4-4-4-4-4-4-4---2-2-2-2-2-2-2-2---x-x----4-4-4-4-4-4-4---2-------
/--0-0-0-0-0-0-0-----x-x-----4-4-4-4-4-4-4---0-0-0-0-0-0-0-0---x-x----4-4-4-4-4-4-4---0-------
/--------------------x-x-----2-2-2-2-2-2-2---------------------x-x----2-2-2-2-2-2-2------------
/--------------------x-x-----2-2-2-2-2-2-2---------------------x-x----2-2-2-2-2-2-2------------


choruos:


/----------------------------------------------------------------------------------
/----------------------------------------------------------------------------------
/----------------------------------------------------------------------------------
/----------------------------------------------------------------------------------
/-----------------------------------------4-4-4-2-4-/-7--7-7-7-7--5----------------
/----5-5-5---7/9--0---2-2-2-2-2---------------------------------------7-0----------


/----------------------------------------------------------------------------7-----
/----------------------------------------------------------------------------7-----
/----------------------------------------------------------------------------9-----
/----------------------------------------------------------------------------9-----
/------------------------------------------------4-4-4-2-4----/--------------7-----
/-----5-5-5----7-/9---0----2-2-2-2-2-----------------------------------------7-----


you thin your so complicated...................................


/---3-3-3------3-------4------0---     --------------     ----3-3-3-----------3--------4--------5-------
/---0-0-0-------------------0-------     --------------    ---0-0-0--------------------------0------------
/---4-4-4---4------4---------------      --------------    ---4-4-4-----4---------4----------------------
/--------------------------------------     -3 veces--   -----0-0-0---------------------------------------
/--------------------------------------     --------------    -------------------------------------------------
/---------------------------------------    --------------    -------------------------------------------------


/---3-3-3--------3-----4-------0------------3-3-3-------3------4--------0-
/---0-0-0-------------------0---------------0-0-0---------------------0---
/---4-4-4----4------4-----------------------4-4-4---4--------4------------
/-------------------------------------------------------------------------
/-------------------------------------------------------------------------
/-------------------------------------------------------------------------


/--------0------------------------0------------------------------0---------------------------------------
/------0------------5v----------0-------------3v-------------0---------1v----------3v3-3-1-0------
/----0-------------------------0---------------------------0---------------------------------------------
/----------------------------------------------------------------------------------------------------------
/----------------------------------------------------------------------------------------------------------
/----------------------------------------------------------------------------------------------------------


solo:


/------------------------------------------------------------------7-9v-------10---12----9-----------------
/--5/3---------------------------------------------------7-9-----------------------------------12-----------
/----------5-/3-----------------------------------7-9-------------------------------------------------12bv-
/-------------------5-/3-------------------7-9---------------------------------------------------------------
/------------------------------------7/9----------------------------------------------------------------------
/-----------------------------7-9-----------------------------------------------------------------------------


and repeat bridge and choruous

[ Tab from: http://www.guitartabs.cc/tabs/a/aerosmith/jaded_tab_ver_3.html ]
b=bend      v=vibrato            /=slide"JADED"
AEROSMITH:JUST PUSH PLAY(ALBUM)
BY:MARIO RUIZ GAYTAN(KIRKRUIZ)


/-----------------------------------------------------------------------------------------------
/-----------------------------------------------------------------------------------------------
/---------------------------------------------------------------4-4---6-6-----------------------
/--6-6-6--4-6-4------6(B/V)-6---4-6-4------6-(B/V)-6--4-6-4-------------------------------------
/-----------------------------------------------------------------------------------------------
/-----------------------------------------------------------------------------------------------


hey,jj-jaded,youve gott youmamas style.......................................


/--0-0------0-0--------0-0--------------2-2-2-2-2-2-2-2-------0------0--0--------0-0----------0-0-----
/--2---------2----------2---------------3-3-3-3-3-3-3-3-------0------2-----------2------------2-------
/--2---------2----------2---------------2-2-2-2-2-2-2-2-------0------2-----------2------------2-------
/--2---------2----------2---------------0-0-0-0-0-0-0-0-------0------2-----------2------------2-------
/--0---------0----------0--------------------------------------------0-----------0------------0-------
/-----------------------------------------------------------------------------------------------------



/--2-2-2-2-2-2-2-----x-x-----2-2-2-2-2-2-2---2-2-2-2-2-2-2-2---x-x----2-2-2-2-2-2-2---2-------
/--3-3-3-3-3-3-3-----x-x-----2-2-2-2-2-2-2---3-3-3-3-3-3-3-3---x-x----2-2-2-2-2-2-2---3-------
/--2-2-2-2-2-2-2-----x-x-----4-4-4-4-4-4-4---2-2-2-2-2-2-2-2---x-x----4-4-4-4-4-4-4---2-------
/--0-0-0-0-0-0-0-----x-x-----4-4-4-4-4-4-4---0-0-0-0-0-0-0-0---x-x----4-4-4-4-4-4-4---0-------
/--------------------x-x-----2-2-2-2-2-2-2---------------------x-x----2-2-2-2-2-2-2------------
/--------------------x-x-----2-2-2-2-2-2-2---------------------x-x----2-2-2-2-2-2-2------------


choruos:


/----------------------------------------------------------------------------------
/----------------------------------------------------------------------------------
/----------------------------------------------------------------------------------
/----------------------------------------------------------------------------------
/-----------------------------------------4-4-4-2-4-/-7--7-7-7-7--5----------------
/----5-5-5---7/9--0---2-2-2-2-2---------------------------------------7-0----------


/----------------------------------------------------------------------------7-----
/----------------------------------------------------------------------------7-----
/----------------------------------------------------------------------------9-----
/----------------------------------------------------------------------------9-----
/------------------------------------------------4-4-4-2-4----/--------------7-----
/-----5-5-5----7-/9---0----2-2-2-2-2-----------------------------------------7-----


you thin your so complicated...................................


/---3-3-3------3-------4------0---     --------------     ----3-3-3-----------3--------4--------5-------
/---0-0-0-------------------0-------     --------------    ---0-0-0--------------------------0------------
/---4-4-4---4------4---------------      --------------    ---4-4-4-----4---------4----------------------
/--------------------------------------     -3 veces--   -----0-0-0---------------------------------------
/--------------------------------------     --------------    -------------------------------------------------
/---------------------------------------    --------------    -------------------------------------------------


/---3-3-3--------3-----4-------0------------3-3-3-------3------4--------0-
/---0-0-0-------------------0---------------0-0-0---------------------0---
/---4-4-4----4------4-----------------------4-4-4---4--------4------------
/-------------------------------------------------------------------------
/-------------------------------------------------------------------------
/-------------------------------------------------------------------------


/--------0------------------------0------------------------------0---------------------------------------
/------0------------5v----------0-------------3v-------------0---------1v----------3v3-3-1-0------
/----0-------------------------0---------------------------0---------------------------------------------
/----------------------------------------------------------------------------------------------------------
/----------------------------------------------------------------------------------------------------------
/----------------------------------------------------------------------------------------------------------


solo:


/------------------------------------------------------------------7-9v-------10---12----9-----------------
/--5/3---------------------------------------------------7-9-----------------------------------12-----------
/----------5-/3-----------------------------------7-9-------------------------------------------------12bv-
/-------------------5-/3-------------------7-9---------------------------------------------------------------
/------------------------------------7/9----------------------------------------------------------------------
/-----------------------------7-9-----------------------------------------------------------------------------

and repeat bridge and choruous


b=bend      v=vibrato            /=slide 
:: Ultimate Guitar Archive :: 
http://www.ultimate-guitar.com 

Comments