Aerosmith - Eat The Rich Chords & Tabs

 

Eat The Rich Chords & Tabs

Aerosmith Chords & Tabs

Version: 5 Type: Tab 0 ratings
1 star 2 stars 3 stars 4 stars 5 stars
comments

Eat The Rich Tab

   
Eat the Rich - Aerosmith(Get a Grip)
Tabbed by Slush
Standard tuning

This has been modified for one guitar.
I'll put in the second guitar part later.
Can someone please help me out on the solo?

h  = hammer on
p  = pull off
b  = bend
r  = release
~~ = vibrato
X  = damp strings
x4 = play four times

Intro

e ---------------------------------
B ---------------------------------
G ---------------------------------
D -2--2----2--2----2--2----2--2----
A -2--2----2--2----2--2----2--2----
E -0--0----0--0----0--0----0--0---- x1

e ------------------------------------
B ------------------------------------
G ------------------------------------
D -----5~~-----------------------2--2-
A -5h7----5h7---------5----------2--2-
E ------------3~~-5/7---7--5--3--0--0- x4

Verse
[ Tab from: http://www.guitartabs.cc/tabs/a/aerosmith/eat_the_rich_tab_ver_5.html ]
   Well I woke up...       On the wrong side...    
e -------------------------------------------------
B -------------------------------------------------
G -------------------------------------------------
D -------0~----------------------0~---------------X-
A ----2~----2~-------0~-2~----2~----2~-------0~-2~X-
E -0~----------0~-4~-------0~----------0~-4~------X- x4

   Cos Im sick of...            And Im sick of...
e --------------------------------------------------------
B --------------------------------------------------------
G --------------------------------------------------------
D -2----4------5----7--7brp5----2----4------5----7--7b~~~-
A -2----4------5----7--------7--2----4------5----7--------
E -0----2------3----5-----------0----2------3----5-------- x1

   And I just cant...      And I think I can do more...
e ---------------------------------------------------------
B ---------------------------------------------------------
G ---------------------------------------------------------
D -2----4------5----7------9-9-9-9-9-9-9-9-9-9-9-9-9-9-9-9-
A -2----4------5----7------9-9-9-9-9-9-9-9-9-9-9-9-9-9-9-9-
E -0----2------3----5------7-7-7-7-7-7-7-7-7-7-7-7-7-7-7-7- x1

Chorus

   Eat...       Theres only...
e -------------------------------
B -----------------------------5-
G -----------------------------4-
D -9--7---------7--------------2-
A -7--5---------5--9-------------
E -------5br~------7--5--3--0---- x4
Comments