Aerosmith - Eat The Rich Chords & Tabs

 

Eat The Rich Chords & Tabs

Aerosmith Chords & Tabs

Version: 3 Type: Tab 2 ratings
1 star 2 stars 3 stars 4 stars 5 stars
comments

Eat The Rich Tab

Artist:Aerosmith
Song:eat the rich
      ~                Intro
E---------------------------------------------------------------------
B---------------------------------------------------------------------
G---------------------------------------------------------------------
D-0-2-5---0-2---------0-----------------------------------------------
A---------------0h1h2---1-1--0-0-----2-2------------------------------
E-------------3------------------3-3-0-0------------------------------

[ Tab from: http://www.guitartabs.cc/tabs/a/aerosmith/eat_the_rich_tab_ver_3.html ]
                        Verse
E---------------------------------------------------------------------
B---------------------------------------------------------------------
G---------------------------------------------------------------------
D---------------------------------------------------------------------
A---------------------------------------------------------------------
E----5p0-7p0-10p0-7p0-5p0-7p0-3p0-5p0---------------------------------

P=Pull off
H=hammer on
~=vibrato

Comments