Aerosmith - Dude Looks Like A Lady Chords & Tabs

 

Dude Looks Like A Lady Chords & Tabs

Aerosmith Chords & Tabs

Version: 2 Type: Bass Tab 0 ratings
1 star 2 stars 3 stars 4 stars 5 stars
comments

Dude Looks Like A Lady Bass Tab

Artist: Aerosmith
Song:   Dude (Looks Like A Lady)

Intro       3x
G||-------------||---------------------------------------------|
D||o-----------o||--------------------------12-12-12-12-14-----|
A||o-----------o||--0\-12-12-12-12-12-12-12----------------10--|
E||---0\-5-/0---||---------------------------------------------|

  Verses (4x)/Solo (8x)
G||---------------------------------------||
D||o---------------------------2---------o||
A||o------------------5-5-5-5------------o||
E||---5-5-5--2-3-4-5--------------2-3-4---||

  Chorus (repeat twice per each 'Dude Looks like a lady')
G||-----------------------------------||
D||o---------------------------2-----o||
A||o------------------5-5-5-5--------o||
E||---5-5-5--2-3-4-5--------------3---||
[ Tab from: http://www.guitartabs.cc/tabs/a/aerosmith/dude_looks_like_a_lady_btab_ver_2.html ]
  Bridge (before guitar solo)  3x
G||------------------------------||---------------------------------|
D||o----------------------------o||---------------------------------|
A||o----------------------------o||-------------------3-3-3-3--7-7--|
E||---5--3-3--1--0-0-0-0-0-0-0---||--4-4-4-4--6-6-6-6---------------|
                                   <- I'm not sure about this     ->

  Bridge (after guitar solo)     3x
G||--------------------------------||-------------------|
D||o------------------------------o||-------------------|
A||o--7-7-7-5-5-7-----------------o||--7-7-7-5-5-7/-----|
E||--------------0-0-0-0-0-0-0-0---||----------------3--|

another one tabbed by duffer!!! aerosmith rock. this is a great song to play.
please please rate this one!!!!!
Comments