Aerosmith - Cryin Chords & Tabs

 

Aerosmith Chords & Tabs

Version: 1 Type: Tab 2 ratings
1 star 2 stars 3 stars 4 stars 5 stars
comments

Cryin Tab

   
#----------------------------------PLEASE NOTE---------------------------------#
#This file is the author's own work and represents their interpretation of the #
#song. You may only use this file for private study, scholarship, or research. #
#------------------------------------------------------------------------------#

Cryin - Aerosmith

by Brian S.

 -Intro- 4x

1st and 3rd Time

   A#5  C5   F5   G5                           
e---------------------I-------------------------------I
B---------------------I-------------------------------I
G-3----5--------------I---5b(7)-5b-5b-5b-5b-3-5-3~~---I 
D-3----5----3----5----I-------------------------------I 
A-1----3----3----5----I-------------------------------I
E-----------1----3----I-------------------------------I 

2nd and 4th time
e---------------------I-------------------------I
B---------------------I-------------------------I
G-3----5--------------I--5b(7)-5b-5b-5b-5b-3----I
D-3----5----3----5----I----------------------5h7I
A-1----3----3----5----I-------------------------I
E-----------1----3----I-------------------------I



-Verse 1-
   
e-------0----------------0--------------2------------------4------
B-----2---2------------0---0----------2---2--------------5---5----
G---2-------2--------1-------0------2-------2----------6-------6--
D-2-------------------------------------------------6-------------
A------------------2-------------4--------------------------------
E-----------------------------------------------------------------

e-------2------------------0------------0------0------0------
B-----3---3--------------2---2--------0---0------0------0----
G---2-------2----------2-------2----1-------1------1------1--
D-0------------------2---------------------------------------
A---------------------------------2--------------------------
E------------------------------------------------------------   
        
e-------0-------------------0---------
B-----2---2---------------0---O-------
G---2-------2-----------1-------1-----
D-2-----------------------------------
A---------------------2---------------
E-------------------------------------

e---------2-----------------------4------- 
B-------2---2-------------------5---5-----
G-----2-------2---------------6-------6---
D---------------------------6-------------
A--4--------------------------------------
E-----------------------------------------

e--------2-----------------0--------------0------0-------0------
B------3---3-------------2---2----------0---0------0-------0----
G----2-------2---------2-------2------1-------1------1-------1--
D--0-----------------2------------------------------------------
A--------------------------------2------------------------------
E---------------------------------------------------------------
[ Tab from: http://www.guitartabs.cc/tabs/a/aerosmith/cryin_tab.html ]
e-------------------------------------------------------------
B-------------------------------------------------------------
G-------------------------------------------------------------
D-----4-7-4-------7-7-7-4-0-------4-7-4-5-------4-5-7---------
A-5-5-------0-----5-5-----------5-------------5---------------
E-3-3---------------------------------------------------------        

e--------------------------------------------------------------
B-------------------------------------0--0--0--0--0--0--0--0---
G-------------------------------------1--1--1--1--1--1--1--1---
D-------4-5-7-----------3-4-6---------2--2--2--2--2--2--2--2---
A---5-5-------------4-4---------------2--2--2--2--2--2--2--2---
E--------------------------------------------------------------

 -Chorus-

e-------0------------0--------
B-----2---2--------0---0------
G---2-------2----1-------1----
D-2---------------------------
A--------------2--------------
E-----------------------------
 
e--------2------------2--------------O---------
B------2---2--------3---3----------2---2-------
G----2-------2----2-------2------2-------2-----
D---------------0--------------2---------------
A-4--------------------------------------------
E----------------------------------------------

e-------------0-----------2-------2------2----------
B-----------0---0-------3---3-------3------3--------
G---------1-----------2-------2-------2------2------
D-------------------0-------------------------------
A------2--------------------------------------------
E---------------------------------------------------

e-------0-------------0---------
B-----2---2---------0---0-------
G---2-------2-----1-------1-----
D-2-----------------------------
A--------------2----------------
E-------------------------------

e-------4--------------2---------------0---------
B-----5---5----------3---3-----------2---2-------
G---6-------6------2-------2-------2-------2-----
D-6--------------0---------------2---------------
A------------------------------------------------
E------------------------------------------------

e---------0---------------2-----------2-------
B-------0---0-----------3---3---------3-------
G-----1-------1-------2-------2-------2-------
D-------------------0-----------------0-------
A---2-----------------------------------------
E---------------------------------------------

Solo : 

rif 1 :

  A#5  C5   F5   G5                           
e---------------------|----------------------------------|
B---------------------|----------------------------------|
G-3----5--------------|---17b-17b~~-17b-15h17p15~~-17/---| 
D-3----5----3----5----|----------------------------------|
A-1----3----3----5----|----------------------------------|
E-----------1----3----|----------------------------------| 

rif 1 repeats a lot 

e|------------------------------|------------------------------| 
b|------------------------------|------------17b-----------17b-| 
g|-----15-17-17br17-15----------|--15----15--17b--17-15-17-17b-| 
d|--17-----------------17-17/~~-|--15-17-----------------------| 
a|------------------------------|------------------------------| 
e|------------------------------|------------------------------| 

e|--------18h20br20-18--20b-20p18-20b-20p18--20b~~~~-| 
b|--18h20--------------------------------------------| 
g|---------------------------------------------------| 
d|---------------------------------------------------| 
a|---------------------------------------------------| 
e|---------------------------------------------------| 

Comments