Aerosmith - Back In The Saddle Chords & Tabs

 

Back In The Saddle Chords & Tabs

Aerosmith Chords & Tabs

Version: 1 Type: Tab 4 ratings
1 star 2 stars 3 stars 4 stars 5 stars
comments

Back In The Saddle Tab

Aerosmith
Back in the Saddle

[ Tab from: http://www.guitartabs.cc/tabs/a/aerosmith/back_in_the_saddle_tab.html ]
Intro:                                     first and second ending: 
1(----------------------------------------(------------------------)
2(----------------------------------------(------------------------)
3(--3p2---------6p5----------------9p8----(-6p5--------------------)
4(---------------------------------8------(-5----------------------)
5(----------------------------------------(------------------------)
6(----------------------------------------(------------------------)
the third time play:
1(---------------------------------)
2(---------------------------------)
3(--8p7---8p7---8p7--8p7--8p7---8\-)
4(--8-----8-----8----8----8-----7\-)
5(---------------------------------)
6(---------------------------------)

Chorus(0:26):
4(----------------------------------------------)Repeat
5(----------------------------------5---5-5-4---)
6(----3--0----3--0----2-3----0-2--3-----------5-)
I'm   back                                      I'm back in the Saddle...etc.




I'll get the rest tabbed out ASAP.
Questions?Comments?Requests? write me at Aerofan_tu@yahoo.com
Comments