Aerosmith - Avant Garden Chords & Tabs

 

Avant Garden Chords & Tabs

Aerosmith Chords & Tabs

Version: 1 Type: Tab 0 ratings
1 star 2 stars 3 stars 4 stars 5 stars
comments

Avant Garden Tab

ARTIST:AEROSMITH
TITLE:AVANT GARDEN - THE INTRO
TRANSCRIBED BY PAUL MCCARTHY

E--------------------------------------------------|
A--------------------------------------------------|
D--------------------------------------------------|
G--------------------------------------------------|
B-----5>7--7--7<5-3----------5>7--7--7<5--3--------|
e-----3----3--3--------------3----3--3-------------|
(>BEND [ Tab from: http://www.guitartabs.cc/tabs/a/aerosmith/avant_garden_tab.html ]
E-------------------------------------------------------|
A-------------------------------------------------------|
D-------------------------------------------------------|
G------------------5------------------------------------|
B-5>7--7--7<5--3----------------------------------------|
e-3----3--3---------------------------------------------|

E----------------------------------------------------------------|
A----------------------------------------------------------------|
D----------------------------------------------------------------|
G-------------5--3--5-5/7--5-------------------------------------|
B-5>7<5--3-------------------------------------------------------|
e-3-3------------------------------------------------------------|

(/=SLIDE)

ANY CORRECTIONS/ADDITIONS EITHER POST ON HERE OR SEND
TO KORINA62@AOL.COM. CHEERS
Comments