Aepoc - Whole Chords & Tabs

 

Whole Chords & Tabs

Aepoc Chords & Tabs

Version: 1 Type: Tab 0 ratings
1 star 2 stars 3 stars 4 stars 5 stars
comments

Whole Tab

   
Fmaj7 
Clean
e|-0-|------------------------------------------------0--------
B|-1-|-------1~~------------------------1~~-------------1------
G|-2-|-----2-----2~~-----2------------2----2~~----2-------2~~~-
D|-3-|---3-------------3---3~~~-----3-----------3---3----------
A|-0-|-0-------------0------------0-----------0----------------
E|-0-|---------------------------------------------------------

Rhythm
e|---------------
B|---------------
G|---------------
D|-2--7--9--5----
A|-2--7--9--5----
E|-0--5--7--3----
[ Tab from: http://www.guitartabs.cc/tabs/a/aepoc/whole_tab.html ]
Interlude
  | 3x |     |1x|  | 3x | |         ending             |
e|-------- ------- ------ ------------------------------
B|-------- ------- ------ ------------------------------
G|-------- ------- ------ ------------------------------
D|-5/87-- -5---3- -5-3-2- -5-7-9-11~~~11///17\\\\---
A|-5/87-- -5---3- -5-3-2- -5-7-9-11~~~11///17\\\\---
E|-3/65-- -3-0h1- -3-1-0- -3-5-7-9~~~~-9///15\\\\---

Bass
G|--------------------------------------------------------------
D|--------------------------------------------------------------
A|--------------------------------------------------------------
E|-0-0~~-0--0-0x--5-5~~-5--5-5x--7-7~~--7--7-7x--3-3~~--3-3-3x--
Comments