Aepoc - White Sheet Chords & Tabs

 

White Sheet Chords & Tabs

Aepoc Chords & Tabs

Version: 1 Type: Tab 0 ratings
1 star 2 stars 3 stars 4 stars 5 stars
comments

White Sheet Tab

e|-------------------------------------------------------------
B|-------3--------------2--------------2-----------2---2-------
G|-----2---2---p0-----0---0----------0---0-------0-------0-----
D|---0-------0------0-------0------0-------0---0-----0---------
A|-0--------------3-----------p0-------------------------------
E|-------------------------------3-----------3-----------------
[ Tab from: http://www.guitartabs.cc/tabs/a/aepoc/white_sheet_tab.html ]
e|-------------------------------------------------------------
B|-3-3-3-3-3-3-3-3-3-3-3-3-3-3-3-3-3-3-3-3-3-3-3-3-------------
G|-2-2-2-2-2-2-0-0-0-0-0-0-0-0-0-0-0-0-0-0-0-0-0-0-------------
D|-0-0-0-0-0-0-0-0-0-0-0-0-0-0-0-0-0-0-0-0-0-0-0-0-------------
A|-0-0-0-0-0-0-3-3-3-3-3-3-0-0-0-0-0-0-0-0-0-0-0-0-------------
E|-------------------------3-3-3-3-3-3-3-3-3-3-3-3-------------

e|-------------------------------------------------------------
B|-3-x-x-3-x-x-3-----------------------------------------------
G|-2-x-x-2-x-x-2-5-----5-----5---------------------------------
D|---------------5-x-x-5-x-x-5-5-x-x-5-x-x-5-x-5-x-x-5-x-x-5---
A|---------------3-x-x-3-x-x-3-5-x-x-5-x-x-5-x-5-x-x-5-x-x-5---
E|-----------------------------3-x-x-3-x-x-3-x-3-x-x-3-x-x-3---
Comments