Aepoc - Tears Chords & Tabs

 

Tears Chords & Tabs

Aepoc Chords & Tabs

Version: 1 Type: Tab 0 ratings
1 star 2 stars 3 stars 4 stars 5 stars
comments

Tears Tab

   
Clean, fingerpicked. Standard Tuning.
[ Tab from: http://www.guitartabs.cc/tabs/a/aepoc/tears_tab.html ]
 |            C            |            Dm            |
e|---3-----------3-------------1----------1---------------
B|-----1-----------1-------------3~~~~~-----3-------------
G|--------0------------0~~~---------------------2-h-0-----
D|------2---2--------2------0-----------0-----0-----------
A|-3----------3-------------------------------------------
E|--------------------------------------------------------

Overdriven, chords strummed.
 |           C             |            Dm            |
e|-0~~~~~~~~~~~~~~~~~~~~~~~-1~~~~~~~~~~~~~~~~~~~~~~~~~~~~-
B|-1~~~~~~~~~~~~~~~~~~~~~~~-3~~~~~~~~~~~~~~~~~~~~~~~~~~~~-
G|-0~~~~~~~~~~~~~~~~~~~~~~~-2~~~~~~~~~~~~~~~~~~~~~~~~~~~~-
D|-2~~~~~~~~~~~~~~~~~~~~~~~-0~~~~~~~~~~~~~~~~~~~~~~~~~~~~-
A|-3~~~~~~~~~~~~~~~~~~~~~~~-------------------------------
E|-0~~~~~~~~~~~~~~~~~~~~~~~-------------------------------
Comments