Aepoc - Martyr Chords & Tabs

 

Martyr Chords & Tabs

Aepoc Chords & Tabs

Version: 1 Type: Tab 0 ratings
1 star 2 stars 3 stars 4 stars 5 stars
comments

Martyr Tab

   
  guitar verse
e|------
B|------
G|------
D|---4--
A|---4--
E|-0-2--

  guitar chorus
e|-----------------------
B|-----------------------
G|-----------------------
D|-4---------4---------5-
A|-4---------4---------5-
E|-2-xxx-x-0-2-xxx-x-0-3-

  guitar interlude rhythm

e|---------------------------------------------------------
B|---------------------------------------------------------
G|---------------------------------------------------------
D|-8/9--------------------------------------------------------
A|-8/9--------------------------------------------------------
E|-6/7--------------------------------------------------------

  guitar interlude pt1
    D      B      D   B  E      F#                           F#   E       D
e|---------------------------------------------------------------------------
B|---------------------------------------------------------------------------
G|---------------------------------------------------------------------------
D|---------------------------------------------------------------------------
A|-------------------------7-7h9-9~~-----------------------------------------
E|-10p7-7-7--7-7-10p-7-7-x-----------10p7-7-7--7-7-10p-7-7-x-2-2-0-0~~2-/-10-
[ Tab from: http://www.guitartabs.cc/tabs/a/aepoc/martyr_tab.html ]
  guitar interlude pt2
    D      B      D   B  E      F#                          E  E F# F#
e|-------------------------------------------------------------------------------
B|-------------------------------------------------------------------------------
G|-------------------------------------------------------------9-9h11-11~~~------
D|-------------------------------------------------------------------------------
A|-------------------------7-7h9-9~~---------------------------------------------
E|-10p7-7-7--7-7-10p-7-7-x-----------10p7-7-7--7-7-10p-12-12-x-------------------

  guitar interlude pt3
   G#       A#             E   E   G#         A# B   A#  E  E
e|-----------------------------------------------------------------
B|-----------------------------------------------------------------
G|-13-13-13p11-11-11-11-11----------13-13-13^-11-------------------
D|-------------------------h14-14~~------------------11~h14-14~~---
A|-----------------------------------------------x14---------------
E|-----------------------------------------------------------------

  guitar interlude pt4

e|----------------------------------------------------------------
B|----------------------------------------------------------------
G|----------------------------------------------------------------
D|11-11-11h14-14-14-11--------------------------------------------
A|---------------------11-11-11h14-14-11--------------------------
E|---------------------------------------14-14-14-14-14-14-14-12--

  guitar interlude ending
                       G#  G#  G#  G#  C#  B  B  G# A# E
e|---------------------------------------------------------
B|-------------------------------------14p12-12------------
G|---------------------13^-13^-13^-13^----------13-11------
D|----------------------------------------------------14~~-
A|---------------------------------------------------------
E|---------------------------------------------------------
Comments