Aepoc - Lauras Song Chords & Tabs

 

Lauras Song Chords & Tabs

Aepoc Chords & Tabs

Version: 1 Type: Tab 0 ratings
1 star 2 stars 3 stars 4 stars 5 stars
comments

Lauras Song Tab

 Intro
e|-----------------------------------------------------------
B|-10-10-10-10h11-11~~-10-10-10-108-8~~---------------------
G|-0---------------------------------------------------------
D|-0---------------------------------------------------------
A|-----------------------------------------------------------
E|-----------------------------------------------------------

e|-----------------------------------------------------------
B|-10-10-10-10h11-11~~-10-10-10-10h118~~--------------------
G|-----------------------------------------------------------
D|-----------------------------------------------------------
A|-----------------------------------------------------------
E|-----------------------------------------------------------
[ Tab from: http://www.guitartabs.cc/tabs/a/aepoc/lauras_song_tab.html ]
 Verse
e|-----------------------------------------------------------
B|-10-10-10-10/11---11---11-11-11-10-10-10-108---8---8-8-8--
G|-0--------------0----0------------------------0---0--------
D|-----------------------------------------------------------
A|-----------------------------------------------------------
E|-----------------------------------------------------------

 Interlude
e|-----------------------------------------------------------
B|-----------------------------------------------------------
G|-----------------------------------------------------------
D|-----------------------------------------------------------
A|-7-7-7-x-x-8~~-7-7-7-x-x-5---------------------------------
E|-5-5-5-x-x-6~~-5-5-5-x-x-3---------------------------------
Comments