Aepoc - Just One Change Chords & Tabs

 

Just One Change Chords & Tabs

Aepoc Chords & Tabs

Version: 1 Type: Tab 0 ratings
1 star 2 stars 3 stars 4 stars 5 stars
comments

Just One Change Tab

   
  bassline
G|----------------------
D|----------------------
A|-7--5--7--5-7---------
E|--------------8-7~~---

  guitar intro/verse
e|--------------------
B|--------------------
G|--------------------
D|-2~~~~~~~~~~~~~~~~--
A|-2~~~~~~~~~~~~~~~~--
E|-0~~~~~~~~~~~~~~~~--

  guitar chorus

e|----------------------------------------------------------------------
B|----------------------------------------------------------------------
G|----------------------------------------------------------------------
D|----------------------------------------------------------------------
A|-5~-5~-5h7-7x-xx7-xx7-7p5-5-5v~~--------------------------------------
E|--------------------------------0~~-7~-7~-7h9-9x-xx9-xx9-9p7-7-7v~~---

  bassline verse
G|------------------------------------
D|------------------------------------
A|------------------------------------
E|-12\5p0~~~~~~~-0~~~~~~-0h5-7-5-0~~~-


D  16-15-15-13-15-13~~~~

  guitar interlude intro mutes
e|--------------------
B|--------------------
G|---0~~~---0~--------
D|---0~~~---0~--------
A|-x-0~~~-x-0h9-10~~--
E|--------------------
[ Tab from: http://www.guitartabs.cc/tabs/a/aepoc/just_one_change_tab.html ]
  guitar interlude pt1
   E     F    C  B    C#  D  C#                B   C  C  C  D C 
e|--------------------------------------------------------------------------
B|--------------------------------------------------------------------------
G|-9~~-9h10p9---------------------------------------------------------------
D|------------10-9~~~-11-12-11~~~~-11h12p11h12-9~~-12-12-12p11-11-11-11-11~-
A|--------------------------------------------------------------------------
E|--------------------------------------------------------------------------

  guitar interlude pt2
   E     F   C  B      D#         C#    C# D      B    
e|---------------------------------------------------------
B|---------------------------------------------------------
G|-9~~-9h10p9----------------------------------------------
D|------------10-9~~~--13-13-13b^-11~~~-11h12p11~-9~~~~----
A|---------------------------------------------------------
E|---------------------------------------------------------

  guitar interlude pt3
e|--------------------------------------------------------------------------
B|--------------------------------------------------------------------------
G|--------------------------------------------------------------------------
D|--------------------------------------------------------------------------
A|-3~~----------------3-5~~---------------0h2-4-2~~-------------------------
E|-----1-1-1p0-0~~~~--------3-3-3h5-5-5~~-----------1/3-5-3~~----x-x-x-x----
Comments