Aepoc - Forgotten Chords & Tabs

 

Forgotten Chords & Tabs

Aepoc Chords & Tabs

Version: 1 Type: Tab 0 ratings
1 star 2 stars 3 stars 4 stars 5 stars
comments

Forgotten Tab

Intro and Verses:

chords - Am - Em - Dm

Verse: (Bass)
G|---------------------------------------------------------------------------
D|---------------------------------------------------------------------------
A|-------------------------------------------------5~~----------5~~-3x-2x-0x-
E|-5-5-5-5-5-0-0~~~---5-5-5-5-5-0-0~~~---5-5-5-5-5----5-5-5-5-5--------------

Chorus: (Guitar)
e|-----------------------------------------------------
B|-----------------------------------------------------
G|-2--4-3-2p0-2---------2--4-3-2p0-2-------------------
D|-2----------2--4-3-2~-2----------2-------------------
A|-0----------0---------0----------0-------------------
E|------------------------------------4-3-2-0~~~~~~~~~-

Chorus: (Bass)
G|-------------4-3-2-------------------------------4-3-2---------------------------
D|-------------------------------4-3-2---------------------------------------------
A|---------------------------------------------------------------------------------
E|-5x-5x-5x-5x-------5x-5x-5x-5x-------5x-5x-5x-5x-------5x-5x-5x-5x-4-3-2-0~~~~~~-
[ Tab from: http://www.guitartabs.cc/tabs/a/aepoc/forgotten_tab.html ]
Solo 1:
e|-------------------------------------------------------------------------------------------------------------
B|-------------------------------------------------------------------------------------------------------------
G|-------------------------------------------------------------------------------------------------------------
D|-------------------------------------------------------------------------------------------------------------
A|-------------------------------------------------------------------------------------------------------------
E|-5~~-5~~~~-7-5-5-3-1-0-3/5~~~-x-7h8-7~~~~7-7h8p7-8-7-11~-12-11-8~7h8p7h8p7~~~-7h8p7-5-7-5-3-1-0-0h1-3-1-0~~~-

                 |
e|-------------------------------------------------------------------------------------------------------------
B|-------------------------------------------------------------------------------------------------------------
G|-------------------------------------------------------------------------------------------------------------
D|-------------------------------------------------------------------------------------------------------------
A|-------------------------------------------------------------------------------------------------------------
E|-7/8-8-10~~~~-10-12~~-10-8-7~-7h8p7h8p7-----------------------------------------------------------

e|---------------------------------------------------------
B|---------------------------------------------------------
G|---------------------------------------------------------
D|---------------------------------------------------------
A|---------------------------------------------------------
E|-8\5-5-5/7-7-------------7\3-3-3/5-5---------------------
Comments