Adolescents - Kids Of The Black Hole Chords & Tabs

 

Kids Of The Black Hole Chords & Tabs

Adolescents Chords & Tabs

Version: 1 Type: Tab 0 ratings
1 star 2 stars 3 stars 4 stars 5 stars
comments

Kids Of The Black Hole Tab

song: kids of the black hole
by: adolescents

intro1
E-------------------------------------------|
B-------------------------------------------|
G-------------------------------------------|
D---7-7-7-7--10-10-10-10--9-9-9-9--8-8-8-8--|
A--5-5-5-5--8--8--8--8---7-7-7-7--6-6-6-6---|
E-------------------------------------------|
all palm muted

intro2
E---------------------------------------------------------------------------|
B---------------------------------------------------------------------------|
G--99999999999999999999-1010101010101010-1111111111111111-1212121212121212--|
D--99999999999999999999-1010101010101010-1111111111111111-1212121212121212--|
A--77777777777777777777--8-8-8-8-8-8-8-8--9-9-9-9-9-9-9-9-1010101010101010--|
E---------------------------------------------------------------------------|

verse
E----------------------------------------------------------------------|
B----------------------------------------------------------------------|
G----------------------------------------------------------------------|
D--9-9999999999999-7-77777777777777------------------------------------|
A--7-7777777777777-5-55555555555555-9-999999-7-777777-5-5555555555555--|
E-----------------------------------7-777777-5-555555-3-3333333333333--|

chorus
E--------|
B--------|
G--9-11--|
D--------|
A--------|
E--------|
[ Tab from: http://www.guitartabs.cc/tabs/a/adolescents/kids_of_the_black_hole_tab.html ]
solo1
E-----------------------------------------------------------------|
B-----------------------------------------------------------------|
G--13-131313131313-13-131313131313-14-141414141414-11-1111111111--|
D---x--x-x-x-x-x-x--x--x-x-x-x-x-x--x--x-x-x-x-x-x--x--x-x-x-x-x--|
A--11-111111111111-11-111111111111-12-121212121212--9--9-9-9-9-9--|
E-----------------------------------------------------------------|

E-------------------------------------|
B-------------------------------------|
G-------------------------------------|
D-------------------------------------|
A--9-999999-7-777777-5-5555555555555--|
E--7-777777-5-555555-3-3333333333333--|

E------------------------------------------------------------------------|
B------------------------------------------------------------------------|
G--13-131313131313-13-131313131313-14141414-16161616-1414-1313-14-13-11--|
D---x--x-x-x-x-x-x--x--x-x-x-x-x-x--x-x-x-x--x-x-x-x--x-x--x-x--x--x--x--|
A--11-111111111111-11-111111111111-12121212-14141414-1212-1111-12-11--9--|
E------------------------------------------------------------------------|

E-------------------------------------|
B-------------------------------------|
G-------------------------------------|
D-------------------------------------|
A--9-999999-7-777777-5-5555555555555--|
E--7-777777-5-555555-3-3333333333333--|

bridge
E-------------------------------------------------------------------|
B-------------------------------------------------------------------|
G-------------------------------------------------------------------|
D--9-9999999999999-7-7777777777777----------------------------------|
A--7-7777777777777-5-5555555555555-9-9999999999999-7-7777777777777--|
E----------------------------------7-7777777777777-5-5555555555555--|

E-------------------|
B-------------------|
G-------------------|
D-------------------|
A--5-5555555555555--|
E--3-3333333333333--|

timing:
intro1..4x
intro2..1x
verse...4x
chorus..alot
solo1...1x
verse...2x
chorus..alot
bridge..4x
solo2...?
verse...4x
chorus..alot more

i dont know the second solo, sorry. ill try to figure it out and post it soon.
Comments