Adolescents - Kids Of The Black Hole Chords & Tabs

 

Kids Of The Black Hole Chords & Tabs

Adolescents Chords & Tabs

Version: 1 Type: Bass Tab

Kids Of The Black Hole Bass Tab

Song : Kids of the Black Hole
Band: The Adolescents
Tab By:  M. Van
flipside217@yahoo.com


intro

G------------------------------------9--------------------------|
D----7------7-10------10--9--10-9-8----8------------------------|
A--------------------10-----------------------------------------|
E---------------------------------------------------------------|

G------------------------------------9--------------------------|
D----7------7-10------10--9--10-9-8----8------------------------|
A--------------------10-----------------------------------------|
E---------------------------------------------------------------|

G---------------------------------------------------------------|
D----7------7-10------10--9--10-9-8-----------------------------|
A--------------------10-----------------------------------------|
E---------------------------------------------------------------|

repeat below as nessesary

G---------------------------------------------------------------|
D---------------------------------------------------------------|
A-----33333333-33333333-33333333-33333333-----------------------|
E---------------------------------------------------------------|



verse

G---------------------------------------------------------------|
D-----------------------9-9-9999--7-7-7777--5-5-5555------------|
A-----77777777-55555555-----------------------------------------|
E---------------------------------------------------------------|

G---------------------------------------------------------------|
D-----------------------9-9-9999--7-7-7777--5-5-55555555--------|
A-----77777777-55555555-----------------------------------------|
E---------------------------------------------------------------|

repeat above as nessesary



chorus

G---------------------------------------------------------------|
D--------------55555555----------7777---------------------------|
A-----77777777----------55555555--------------------------------|
E---------------------------------------------------------------|

G---------------------------------------------------------------|
D--------------55555555----------77777777-----------------------|
A-----77777777----------55555555--------------------------------|
E---------------------------------------------------------------|

verse

G---------------------------------------------------------------|
D-----------------------9-9-9999--7-7-7777--5-5-5555------------|
A-----77777777-55555555-----------------------------------------|
E---------------------------------------------------------------|

G---------------------------------------------------------------|
D-----------------------9-9-9999--7-7-7777--5-5-55555555--------|
A-----77777777-55555555-----------------------------------------|
E---------------------------------------------------------------|

repeat above as nessesary




chorus

G---------------------------------------------------------------|
D--------------55555555--------7777-----------------------------|
A-----77777777---------55555555---------------------------------|
E---------------------------------------------------------------|

G---------------------------------------------------------------|
D--------------55555555--------77777777-------------------------|
A-----77777777---------55555555---------------------------------|
E---------------------------------------------------------------|
[ Tab from: http://www.guitartabs.cc/tabs/a/adolescents/kids_of_the_black_hole_btab.html ]
  pause of a couple of measures


G---------------------------------------------------------------|
D------------------------------------------9----------------7---|
A-----7-----------------5---------------------------------------|
E---------------------------------------------------------------|

G---------------------------------------------------------------|
D-----5-----------------3---------------------------------------|
A---------------------------------------------------------------|
E---------------------------------------------------------------|




verse/guitar solos

G---------------------------------------------------------------|
D-----------------------9-9-99999999--7-7-77777777--------------|
A-----77777777-55555555-----------------------------------------|
E---------------------------------------------------------------|

G---------------------------------------------------------------|
D----5-5-55555555--3-3-33333333---------------------------------|
A---------------------------------------------------------------|
E---------------------------------------------------------------|

G---------------------------------------------------------------|
D-----------------------9-9-99999999--7-7-77777777--------------|
A-----77777777-55555555-----------------------------------------|
E---------------------------------------------------------------|

G---------------------------------------------------------------|
D----5-5-55555555--3-3-33333333---------------------------------|
A---------------------------------------------------------------|
E---------------------------------------------------------------|

repeat above as nessesary




back to verse

G---------------------------------------------------------------|
D-----------------------9-9-9999--7-7-7777--5-5-5555------------|
A-----77777777-55555555-----------------------------------------|
E---------------------------------------------------------------|

G---------------------------------------------------------------|
D-----------------------9-9-9999--7-7-7777--5-5-55555555--------|
A-----77777777-55555555-----------------------------------------|
E---------------------------------------------------------------|

repeat above as nessesary



chorus

G---------------------------------------------------------------|
D--------------55555555----------7777---------------------------|
A-----77777777----------55555555--------------------------------|
E---------------------------------------------------------------|

G---------------------------------------------------------------|
D--------------55555555----------7777---------------------------|
A-----77777777----------55555555--------------------------------|
E---------------------------------------------------------------|


G---------------------------------------------------------------|
D--------------55555555----------7777---------------------------|
A-----77777777----------55555555--------------------------------|
E---------------------------------------------------------------|

G---------------------------------------------------------------|
D--------------55555555----------77777777-----------------------|
A-----77777777----------55555555--------------------------------|
E---------------------------------------------------------------|


kids of the black hole.......







listen to the song and you should get it down the rythym
enjoy