Adolescents - I Hate Children Chords & Tabs

 

I Hate Children Chords & Tabs

Adolescents Chords & Tabs

Version: 2 Type: Tab 0 ratings
1 star 2 stars 3 stars 4 stars 5 stars
comments

I Hate Children Tab


-----------------------------------------------------------------------------
                        I HATE CHILDREN - Adolescents
-----------------------------------------------------------------------------
[ Tab from: http://www.guitartabs.cc/tabs/a/adolescents/i_hate_children_tab_ver_2.html ]
By:Darbycrash17 
                                                                        
E------------------------------------------|
B------------------------------------------|
G------------------------------7--2--7--2--|
D---5--5--5--8--8--8--7--7--7--7--2--7--2--|
A---5--5--5--8--8--8--7--7--7--5--0--5--0--|
E---3--3--3--6--6--6--5--5--5--------------|                            
                                          

E----------------------------:--------------------|
B----------------------------:--------------------|
G---9--9--9------------------:--7--7--7--7--7--7--|
D---9--9--9--7--7--7--7--10--:--7--7--7--7--7--7--|
A---7--7--7--7--7--7--7--10--:--5--5--5--5--5--5--|
E------------5--5--5--5--8---:--------------------|

=============================================================================
Comments