Adnesium - New Direction Chords & Tabs

 

New Direction Chords & Tabs

Adnesium Chords & Tabs

Version: 1 Type: Bass Tab

New Direction Bass Tab

Adnesium- New Direction
its right because i wrote it

Tuning EADGBe
riff 1 part one

e-----------0----------------------|
b------4------4--------------------|
g----6---6------6------------------|  Repeat
d--6-------------------------------|

then
riff 1 part two

e----------2------------------------|
b-----3------3----------------------|
g---4---4------4--------------------| Repeat
d-0---------------------------------|

bridge part one
e----------0---------------------------|
b------1-----1-------------------------|
g----2---2-----2-----------------------| Repeat
d--0-----------------------------------|
[ Tab from: http://www.guitartabs.cc/tabs/a/adnesium/new_direction_btab.html ]
part two
e----------0--------------------------|
b------1-----1------------------------|
g----2---2-----2----------------------| Repeat
d--3----------------------------------|

Chorus
e 1       4
b 1       4
g 3       6
d 3       6  repeat
a 1       4
e 1       4

verse again
bridge and chorus again (3 times rather than two hold last note) then

slow tempo right down

e 4       2           0       0
b 5       2           0       0
g 6       4           4       2
d 6       4           6       4
a 4       2           0       0
e 4       2  repeat   0       0  repeat

e 0       0
b 4       2
g 6       4
d 6       4
a 0       0
e 0       0 repeat

back to chorus
verse, bridge
chorus (play three times again and end abrubtly on last chord)

i'll do lyrics later!

cheers!  we're going to be big, watch this space...