Adicts - Straight Jacket Chords & Tabs

 

Straight Jacket Chords & Tabs

Adicts Chords & Tabs

Version: 1 Type: Bass Tab 0 ratings
1 star 2 stars 3 stars 4 stars 5 stars
comments

Straight Jacket Bass Tab

   
STRAIGHT JACKET - The Adicts

Tabbed by: Bryan Kunde (Kunders@new.rr.com)

G|--------------|X6
D|--------------|
A|-55-000-22-00-|
E|--------------|

G|-------------|X2
D|-------------|
A|-5---0-0-0-0-|
E|-------------|

G|--------------|X2
D|--------------|
A|-55-000-22-00-|
E|--------------|

G|---------------------------|
D|---------------------------|
A|-5555555555555555-00000000-|
E|---------------------------|

G|-------------------------------|
D|-------------------------------|
A|-5555-4444-3333-2222-1111-0000-|
E|-------------------------------|

G|---------|X2
D|---------|
A|-5--0--2-|
E|---------|

G|--------------|X6
D|--------------|
A|-55-000-22-00-|
E|--------------|

G|-------------|X2
D|-------------|
A|-5---0-0-0-0-|
E|-------------|

G|--------------|X2
D|--------------|
A|-55-000-22-00-|
E|--------------|
[ Tab from: http://www.guitartabs.cc/tabs/a/adicts/straight_jacket_btab.html ]
G|---------------------------|
D|---------------------------|
A|-5555555555555555-00000000-|
E|---------------------------|

G|-------------------------------|
D|-------------------------------|
A|-5555-4444-3333-2222-1111-0000-|
E|-------------------------------|

G|---------|X2
D|---------|
A|-5--0--2-|
E|---------|

G|----------|X8
D|----------|
A|-55555555-|
E|----------|

G|--------------|X6
D|--------------|
A|-55-000-22-00-|
E|--------------|

G|-------------|X2
D|-------------|
A|-5---0-0-0-0-|
E|-------------|

G|--------------|X2
D|--------------|
A|-55-000-22-00-|
E|--------------|

G|---------------------------|
D|---------------------------|
A|-5555555555555555-00000000-|
E|---------------------------|

G|-------------------------------|
D|-------------------------------|
A|-5555-4444-3333-2222-1111-0000-|
E|-------------------------------|

G|---------|X3
D|---------|
A|-5--0--2-|
E|---------|
Comments