Adicts - Songs Of Praise Chords & Tabs

 

Songs Of Praise Chords & Tabs

Adicts Chords & Tabs

Version: 2 Type: Tab 0 ratings
1 star 2 stars 3 stars 4 stars 5 stars
comments

Songs Of Praise Tab

-----------------------------------------------------------------------------
			     SONGS OF PRAISE - The Adicts
-----------------------------------------------------------------------------

Tabbed by:Jesse Diaz

Email:Tandie13@msn.com
 
Tuning: Standard Tuning

INTRO
e|--------------------------------------------------------------------------|
B|--------------------------------------------------------------------------|
G|--------------------------------------------------------------------------|
D|--------------------------------------------------------------------------|
A|---3------3-----3-----3-----3-----3-----3-----3-----3-----3-------8-------|
E|---1---1-----1-----1-----1-----1-----1-----1-----1-----1----------6-Pic-S.|

Verse 1
e|-------------------------------------------------------------------------|
B|---------------------------------------------8/10----11------------------|
G|--------------------------------------8/10-------------------------------|
D|----------------7-------8-8-8-8-8--------------------------------2x------|
A|---8-8-8-8-8----5---7---6-6-6-6-6----------------------------------------|
E|---6-6-6-6-6--------5----------------------------------------------------|
[ Tab from: http://www.guitartabs.cc/tabs/a/adicts/songs_of_praise_tab_ver_2.html ]
Verse 2
e|-------------------------------------------------------------------------|
B|-------------------------------------------------------------------------|
G|-------------------------------------------------------------------------|
D|----------------7--------8-8-8-8-8-8-8-8-8-8-------------------4x--------|
A|---8-8-8-8-8----5---7----6-6-6-6-6-6-6-6-6-6-----------------------------|
E|---6-6-6-6-6--------5----------------------------------------------------|

Chorus
e|------------------------------------------------------------------------|
b|----10-----------------------------------8------------------------------|
g|-------10-----------------------------------8---------------------------|  
d|-10-------10---10-10-10-10-10-10-10--8----------8----8-8-8-8----2x------|
a|--8-------------8--8-8--8--8--8--8---6---------------6-6-6-6------------|
E|------------------------------------------------------------------------|

Then...
Verse 1
Verse 2 4x

INTERLUDE
e|-------------------------------------------------------------------------|
b|-------------------------------------------------------------------------|
g|-------------------------------------------------------------------------| 
d|----7---8------------------------------------8-8-8-8-8-8-8-8-8-8--2x-----|
a|----5---6------8-8-8-8-8-8-8-8-8-8---7---8---6-6-6-6-6-6-6-6-6-6---------|
E|---------------6-6-6-6-6-6-6-6-6-6---5---6-------------------------------|

e|-------------------------------------------------------------------------|
B|-------------------------------------------------------------------------|
G|-------------------------------------------------------------------------|
D|---5---8-----------------------------888888888888-----4x-----------------|
A|---7---6---888888888888----5---8-----666666666666------------------------|
E|-----------666666666666----7---6-----------------------------------------|
             ............              ............


End Doing Chorus 4x


THATS IT QUESTIONS EMAIL ME AT TANDIE13@msn.com
Comments