Adicts - Songs Of Praise Chords & Tabs

 

Songs Of Praise Chords & Tabs

Adicts Chords & Tabs

Version: 1 Type: Tab 0 ratings
1 star 2 stars 3 stars 4 stars 5 stars
comments

Songs Of Praise Tab

   
                     SONGS OF PRAISE
                   -------------------
                         ADICTS
                    tabbed by: Matt Goolsby

" " -palm mute
 / - hammer on or slide (dont individually pick)


e|--------------------------------------------------------|
b|--------------------------------------------------------|
g|------------------------------------------------------3-|  intro
d|------------------------------------------------------1-|
a|-3------"3---3---3---3---3---3---3---3---3---3---3"-----|
E|-1----"1---1---1---1---1---1---1---1---1---1---1---1"---|

e|---------------------------------------|
b|-------------------------------8/10-11-|
g|-----------------3-333333-8/10---------| bridge a
d|-3-33333333-7----1-111111--------------|
a|-1-11111111-5-7------------------------|
E|--------------5------------------------|

e|-------------------------------------|
b|-------------------------------------|
g|-------------------3-333333-3-333333-| verse a
d|-"3333333333"-7----1-111111-1-111111-|
a|-"1111111111"-5-7--------------------|
E|----------------5--------------------|
[ Tab from: http://www.guitartabs.cc/tabs/a/adicts/songs_of_praise_tab.html ]
e|----------------------------------------------|
b|----10-------------------------8--------------|
g|-------10------------------------8------------|  chorus
d|-10-------10-10-101010101010-8-----8-8-888888-|
a|--8-----------8--8-8-8-8-8-8-6-------6-666666-|
E|----------------------------------------------|

e|-------------------------------------|
b|-------------------------------------|
g|-------------------------------------| bridge b (x's on a6 and d8,
d|-x-x-7-8-----------------8-888888888-|  only the first time)
a|-x-x-5-6-8-888888888-7-8-6-666666666-|
E|---------6-666666666-5-6-------------|

e|--------------------------------------|
b|--------------------------------------|
g|--------------------------------------| verse b
d|-3-"33333333333333"-1-111111-1-111111-|
a|-1-"11111111111111"-------------------|
E|--------------------------------------|

e|----------------------------------------------|
b|----10-------------------------8--------------|
g|-------10------------------------8------------| end
d|-10-------10-10-101010101010-8-----8----------|
a|--8-----------8--8-8-8-8-8-8-6-------10-10-10-|
E|--------------------------------------8--8--8-|

SONG ORDER
------------
intro
bridge a x2
verse a x4
chorus x2
bridge a x2
verse a x4
chorus x4
bridge b x2
verse b x4
chorus x3
end

	This song is really badass, and easy to play. Figuring out the
strumming rythyms is up to you though, i didnt feel like putting it.
Enjoy.
Comments