Adicts - Songs Of Praise Chords & Tabs

 

Songs Of Praise Chords & Tabs

Adicts Chords & Tabs

Version: 1 Type: Bass Tab

Songs Of Praise Bass Tab

Artist: The Adicts
Album: Songs of Praise
Song: Songs of Praise
Tabbed By: Mike

Intro:
G---5---5---5---5---5---5---5---3---3---3---3---3---3-|
D-3---3---3---3---3---3---3---1---1---1---1---1---1---|
A-----------------------------------------------------|
E-----------------------------------------------------|

Verse X6:
G--------------------------|
D--------------------------|
A--------6~--4-6666-4-6666-|
E-6666666--6~--------------|

Chorus X2:
G-------------------------------|
D-------------------------------|
A-8888888-8888888-6666666-6-6---|
E--------------------------6-6--|

Verse X6:
G--------------------------|
D--------------------------|
A--------6~--4-6666-4-6666-|
E-6666666--6~--------------|

Chorus X3:
G-------------------------------|
D-------------------------------|
A-8888888-8888888-6666666-6-6---|
E--------------------------6-6--|
[ Tab from: http://www.guitartabs.cc/tabs/a/adicts/songs_of_praise_btab.html ]
Chorus continued x1
G-----------------------------------------| (During 4th time of the chours
D------7~~--10~~--7~~-------5~~--8~~--5---|~  play this 1ce... ~ = let it ring)
A-8~~------------------6~~----------------|
E-----------------------------------------|

Breakdown or "Bridge"
G---------------------------------------------|
D---------------------------------------------|
A-5-6----------666666-5-6----------666666-5-6-|
E----666666-5-6----------666666-5-6-----------|

Breakdown continued X4:
G---------------------------|
D---------------------------|
A-------------6666666666666-|
E-666666666666--------------|

Chorus X3:
G-------------------------------|
D-------------------------------|
A-8888888-8888888-6666666-6-6---|
E--------------------------6-6--|

Chorus continued x1
G-----------------------------------------| (During 4th time of the chours
D------7~~--10~~--7~~-------5~~--8~~--5---|~  play this 1ce... ~ = let it ring)
A-8~~------------------6~~----------------|
E-----------------------------------------|


Order:
Intro X1
Verse X6
Chorus X2
Verse X6
Chorus X 3
Chorus cont X1
pause for quick drum bang thing
breakdown X1
breakdown cont X4
Chorus X3
Chorus cont X1

This is my second adicts tab, im pretty sure it's right, it works when I play it anyways.