Adicts - Numbers Chords & Tabs

 

Numbers Chords & Tabs

Adicts Chords & Tabs

Version: 1 Type: Tab 0 ratings
1 star 2 stars 3 stars 4 stars 5 stars
comments

Numbers Tab

-----------------------------------------------------------------------------
			     NUMBERS- THE ADICTS
-----------------------------------------------------------------------------
Tabbed by:Robert
Email:punknthe909@aol.com
[ Tab from: http://www.guitartabs.cc/tabs/a/adicts/numbers_tab.html ]
Tuning: standard
INTRO:
e|---------------------------------------------------------------------------|
B|---------------------------------------------------------------------------|
G|--7----5----3--------------------------------------------------------------|
D|--7----5----3--------------------------------------------------------------|
A|--5----5----1--------------------------------------------------------------|
E|---------------------------------------------------------------------------|
VERSE:
e|---------------------------------------------------------------------------|
B|---------------------------------------------------------------------------|
G|--7---5---3--2-2-----7-------5---7-------5---------------------------------|
D|--7---5---3--2-2-----7-slide-5---7-slide-5-x4--5--7------------------------|
A|--5---3---1--0-0-----5-------3---5-------3-----5--7------------------------|
E|-----------------------------------------------3--5------------------------|
Chorus:
e|---------------------------------------------------------------------------|
B|---------------------------------------------------------------------------|
G|--10-------12-------5-5-5-5------------------------------------------------|
D|--10-slide-12-x2----5-5-5-5------------------------------------------------|
A|---8-------10-------3-3-3-3------------------------------------------------|
E|---------------------------------------------------------------------------|
Pre-solo
e|---------------------------------------------------------------------------|
B|---------------------------------------------------------------------------|
G|------------7-7-7-7--------------------------------------------------------|
D|--5-5-5-5---7-7-7-7-x4-----------------------------------------------------|
A|--5-5-5-5---5-5-5-5--------------------------------------------------------|
E|--3-3-3-3------------------------------------------------------------------|

Don't know solo but verse chords played over solo check song for timing
Comments