Adicts - Mary Whitehouse Chords & Tabs

 

Mary Whitehouse Chords & Tabs

Adicts Chords & Tabs

Version: 1 Type: Tab 0 ratings
1 star 2 stars 3 stars 4 stars 5 stars
comments

Mary Whitehouse Tab

   
Song:Mary Whitehouse
Album:Songs Of Praise
Artist:The Adicts
Genre:Punk Rock
Year:1981
Tuning:Standard (E,A,D,G,B,E)

Intro x1
E--------------------------------|
B--------------------------------|
G------9-9-----------------------|
D-7-7--9-9-9\2~~--22-2~~~--2~~~--|
A-7-7--7-7-7\2~~--22-2~~~--2~~~--|
E-5-5--------0----00-0-----0~~~--|

Verse 1 x1
E-----------------------------------|
B-----------------------------------|
G-----------------------------------|
D-2-----9-----------------------X\--|
A-2x16--9x12--------------------X\--|
E-0-----7------5-7-9~~~--9-7-5--X\--|

Chorus 1 x1
E-----------------------------------------|
B-----------------------------------------|
G-----------------------------------------|
D-2~--------------------------------------|
A-2~--------2---------6--4-2-----------2--|
E-0~--0-2-4---4-2-0-2-4------4-2-0-2h4----|

E--------------------|
B--------------------|
G--------------------|
D-4-2----------------|
A-----5-4-2-0h2-4~~--|
E--------------------|

Post-Chorus 1 x1
E----------------------|
B----------------------|
G-----9-9--------------|
D-7-7-9-9-9\2~~--2-----|
A-7-7-7-7-7\2~~--2x16--|
E-5-5-------0~~--0-----|

Verse 2 x1
E----------------------------------|
B----------------------------------|
G----------------------------------|
D-2-----9--------------------------|
A-2x16--9x12-----------------------|
E-0-----7------5-7-9~~~--9-7-5~~~--|
[ Tab from: http://www.guitartabs.cc/tabs/a/adicts/mary_whitehouse_tab.html ]
Chorus 2 x1
E-----------------------------------------|
B-----------------------------------------|
G-----------------------------------------|
D-2~--------------------------------------|
A-2~--------2---------6--4-2-----------2--|
E-0~--0-2-4---4-2-0-2-4------4-2-0-2h4----|

E--------------------|
B--------------------|
G--------------------|
D-4-2----------------|
A-----5-4-2-0h2-4~~--|
E--------------------|

Post-Chorus 2 Pt.1 x1
E--------------|
B--------------|
G-----9-9------|
D-7-7-9-9-9\2--|
A-7-7-7-7-7\2--|
E-5-5-------0--|

Post Chorus 2 Pt.2 x1
E-77777--777777--7~~~--|
B-55555--555555--5~~~--|
G-44444--444444--4~~~--|
D----------------------|
A----------------------|
E----------------------|

Then:
*Verse 3 x1
*Chorus 3 x1
*Post-Chorus 2 Pt.1 x1
*Chorus 4 x1
*Post-Chorus 2 Pt.1 x1

Interlude 1 x1
E---------------------------|
B---------------------------|
G---------------------------|
D-2-2-2-2--2-2-2-2--222222--|
A-2-2-2-2--2-2-2-2--222222--|
E-0-0-0-0--0-0-0-0--000000--|

Then:
*Chorus 5 x1

Outro 1 x1
E-------------------|
B-------------------|
G-----9-9-----------|
D-7-7-9-9-9\2~~--2--|
A-7-7-7-7-7\2~~--2--|
E-5-5-------0~~--0--|

Song Order:
*Intro x1
*Verse 1 x1
*Chorus 1 x1
*Post-Chorus 1 x1
*Verse 2 x1
*Chorus 2 x1
*Post-Chorus 2 Pt.1 x1
*Post Chorus 2 Pt.2 x1
*Verse 3 x1
*Chorus 3 x1
*Post-Chorus 2 Pt.1 x1
*Chorus 4 x1
*Post-Chorus 2 Pt.1 x1
*Interlude 1 x1
*Chorus 5 x1
*Outro 1 x1

Key:
\=Slide Down
~=Let Ring
X\=Pickslide

*Here Is A Link If You Wanna Play Along:
http://www.youtube.com/watch?v=wwWeoKQWCUM

*Don't Forget To Rate And Comment If You
Liked The Tab, And Comment Any Corrections,
I Welcome Corrections.
Comments