Adicts - Lets Go Chords & Tabs

 

Lets Go Chords & Tabs

Adicts Chords & Tabs

Version: 1 Type: Bass Tab 0 ratings
1 star 2 stars 3 stars 4 stars 5 stars
comments

Lets Go Bass Tab

THIS IS HOW IT GOES ACCORDING TO MY EARS. IF YOU HAVE ANY PROBLEMS PLEASE E MAIL ME
PIMPODACLOWN69@AOL.COM
CHORUS PT 1
G---------------------------------------------------------------------------|
D--------5-3--3-2-0-2-3-2-0-2-0-------0-------------------------------------|
A------3------------------------3-2-3---------------------------------------|
E--5------------------------------------------------------------------------|
CHORUS PT 2
G---------------------------------------------------------------------------|
D--------5-3--3-2-0-2-3-2-3-5-3-5-7-5-7-------------------------------------|
A------3--------------------------------------------------------------------|
E--5------------------------------------------------------------------------|
VERSE
G---------------------------------------------------------------------------|
D---------------------------------------------------------------------------|
A-------------------------------------555555555555555555555555555555555-----|
E------5555555555555555555555555555555--------------------------------------|

HE USES A PICK OR U CAN PLUCK WHAT EVER U WANT TO DO C YA
                           GREG
[ Tab from: http://www.guitartabs.cc/tabs/a/adicts/lets_go_btab.html ]
Comments