Adicts - Dont Exploit Me Chords & Tabs

 

Dont Exploit Me Chords & Tabs

Adicts Chords & Tabs

Version: 2 Type: Tab 0 ratings
1 star 2 stars 3 stars 4 stars 5 stars
comments

Dont Exploit Me Tab

Adicts - dont exploit me
Submitted By: Dan Clocky
EMail: adict4lcb@yahoo.com


Tight song, and it sounds really cool even though its not hard to play.

Intro:
e|---------------------------------------------------------------------------|
B|---------------------------------------------------------------------------|
G|4--------------------------------------------------------------------------|
D|4--------------------------------------------------------------------------|
A|2--------------------------------------------------------------------------|
E|---------------------------------------------------------------------------|
 Palm Mute and slowly release the palm mute & keep strumming until Verse.

Main Riff/Verse:
e|---------------------------------------------------------------------------|
B|---------------------------------------------------------------------------|
G|4-4-4-4--7--6-6-6-6--7-----------------------------------------------------|
D|4-4-4-4--7--6-6-6-6--7-----------------------------------------------------|
A|2-2-2-2--5--4-4-4-4--5-----------------------------------------------------|
E|---------------------------------------------------------------------------|
Repeat the Main Riff throughout the verse
[ Tab from: http://www.guitartabs.cc/tabs/a/adicts/dont_exploit_me_tab_ver_2.html ]
Chorus:
e|---------------------------------------------------------------------------|
B|---------------------------------------------------------------------------|
G|9-9-9-9-9-9-9-9-----6-6-6-6-6-6-6-6----------------------------------------|
D|9-9-9-9-9-9-9-9-----6-6-6-6-6-6-6-6----------------------------------------|
A|7-7-7-7-7-7-7-7-----4-4-4-4-4-4-4-4----------------------------------------|
E|---------------------------------------------------------------------------|
"Don't Exploit Me." "Please Don't Use Me."
Do chorus 3x the on the 4th after playing the C# chord, hold the E chord.

Solo:
e|-------------------------------------------------------------------------------|
B|12-15-14-15-12-15-14-15-12-12-12-12-15-14-14-14-14-15-12-12-12-12-15-14-14-14--|
G|-------------------------------------------------------------------------------|
D|-------------------------------------------------------------------------------|
A|-------------------------------------------------------------------------------|
E|-------------------------------------------------------------------------------|

Solo: (cont)
e|---------------------------------------------------------------------------------|
B|15-17-17-17-17-15-14-14-14-14-15-17-17-17-17-15-14-14-14-14-12-15-14-15-14-15/---|
G|---------------------------------------------------------------------------------|
D|---------------------------------------------------------------------------------|
A|---------------------------------------------------------------------------------|
E|---------------------------------------------------------------------------------|

After Solo: x4
e|---------------------------------------------------------------------------|
B|---------------------------------------------------------------------------|
G|9-xxx-------------6-xxx----------------------------------------------------|
D|9-xxx-------------6-xxx----------------------------------------------------|
A|7-xxx-------------4-xxx----------------------------------------------------|
E|---------------------------------------------------------------------------|
"Don't Exploit Me." "Please Don't Use Me."


If you have any corrections contact me. Have fun   Lates
Comments