Adicts - Come Along Chords & Tabs

 

Come Along Chords & Tabs

Adicts Chords & Tabs

Version: 2 Type: Tab 0 ratings
1 star 2 stars 3 stars 4 stars 5 stars
comments

Come Along Tab

Band: Adicts
Song: Come Along


tabbed by jam9383@yahoo.com


Intro

Light Palm Muting------------------------------------------------------|
e----------------------------------------------------------------------|
B----------------------------------------------------------------------|
G--9--9-9--9-9----9--9-9---9--9-9--------------------------------------|
D--9--9-9--9-9----9--9-9---9--9-9--------------------------------------|
A--7--7-7--7-7----7--7-7---7--7-7--------------------------------------|
E----------------------------------------------------------------------|


e---------------------------------------------------------------------|
B---------------------------------------------------------------------|
G--9\--11-11/-9\11\13\14----------------------------------------------|
D--9\--11-11/-9\11\13\14----------------------------------------------|
A--7\--9--9-/-7\9-\11\12----------------------------------------------|
E---------------------------------------------------------------------|

Verse

Heavy Palm Muting------------------------------------------------------|
e----------------------------------------------------------------------|
B----------------------------------------------------------------------|
G---9-9-9----9-9-9---9-9-9----9-9-9------------------------------------|
D---9-9-9----9-9-9---9-9-9----9-9-9------------------------------------|
A---7-7-7----7-7-7---7-7-7----7-7-7------------------------------------|
E----------------------------------------------------------------------|

e---------------------------------------------------------------------|
B---------------------------------------------------------------------|
G---------------------------------------------------------------------|
D---------------------------------------------------------------------|
A---7/6/4--0-2\4-2-4--------------------------------------------------|
E---------------------------------------------------------------------|
[ Tab from: http://www.guitartabs.cc/tabs/a/adicts/come_along_tab_ver_2.html ]
e---------------------------------------------------------------------|
B---------------------------------------------------------------------|
G---------------------------------------------------------------------|
D---------------------------------------------------------------------|
A-----------4-------4-------------------------------------------------|
E---5---7------7------------------------------------------------------|

Pre-Chorus

e---------------------------------------------------------------------|
B---------------------------------------------------------------------|
G--------------4------------------------------------------------------|
D---7--6---4---4------------------------------------------------------|
A---7--6---4---2------------------------------------------------------|
E---5--4---2----------------------------------------------------------|

Chorus

e---------------------------------------------------------------------|
B---------------------------------------------------------------------|
G--9---9-------------------------------------9------------------------|
D--9---9----9/11-11--11--11--11\9/11-9-9-9-9-9------------------------|
A--7---7----9/11-11--11--11--11\9/11-9-9-9-9-7------------------------|
E-----------7/9--9---9---9---9-\7/9--7-7-7-7--------------------------|

Bridge

e---------------------------------------------------------------------|
B---------------------------------------------------------------------|
G--7\9-8--6--4---2-----4----------------------------------------------|
D--7\9-8--6--4---2--4--4----------------------------------------------|
A--5\7-6--4--2---0--4--2----------------------------------------------|
E-------------------2-------------------------------------------------|

Outro

Artificial Harmonics(vibraphone for guitar)
e---------------------------------------------------------------------|
B--17--16--14--12------13-12-10-8-------------------------------------|
G---------------------------------------------------------------------|
D---------------------------------------------------------------------|
A---------------------------------------------------------------------|
E---------------------------------------------------------------------|


Any corrections/comments needed contact me, please rate
Comments