Adicts - Calling Calling Chords & Tabs

 

Calling Calling Chords & Tabs

Adicts Chords & Tabs

Version: 1 Type: Bass Tab

Calling Calling Bass Tab

Song : Calling, Calling
Band: The Adicts
Tab By:  M. Van
flipside217@yahoo.com

Intro

G--------------------------------------------------------|
D--------------------------------------------------------|
A----3--2----------3--2----------------------------------|
E--------5--3----------5--3------------------------------|

verse

G--------------------------------------------------------|
D---------------4-4444-----6-6666------------------------|
A-----5-5555---2----------3----------3-5320--------------|
E----3---------------------------------------------------|
[ Tab from: http://www.guitartabs.cc/tabs/a/adicts/calling_calling_btab.html ]
G--------------------------------------------------------|
D---------------4-4444-----6-6666------------------------|
A-----5-5555---2----------3----------3-5320--------------|
E----3---------------------------------------------------|

repeat above as necessary


Chorus

G--------------------------------------------------------|
D--------------------------------------------------------|
A---3-3-335-----------3-3-335-----------3-3-335----------|
E----------3-3-335-----------3-3-335-----------3-3-335---|

G--------------------------------------------------------|
D--------------------------------------------------------|
A----3--2----------3--2----------------------------------|
E--------5--3----------5--3------------------------------|

then back to verse and so on



Just listen to the song to get the rhythm down.
I dont really know how to write tabs but I did my best.
Fun song to play once you get it down.

Enjoy!