Adicts - California Chords & Tabs

 

California Chords & Tabs

Adicts Chords & Tabs

Version: 1 Type: Tab 0 ratings
1 star 2 stars 3 stars 4 stars 5 stars
comments

California Tab

Band: Adicts
Song: California


tabbed by jam9383@yahoo.com


Riff/Intro

e---------------------------------------------------------------------|
B---------------------------------------------------------------------|
G-----------------------------------------------------2-2-2-5-2---2---|
D------------------2-2-2-5-2---2-----------2-3-3-2--------------5-----|
A--------2-3-3-2-------------5-------3-3-5---------5------------------|
E--3-3-5---------5----------------------------------------------------|

e---------------------------------------------------------------------|
B---------------------------------------------------------------------|
G---------------------------------------------------------------------|
D------------------2-2-2-5-2---2-----------2-3-3-3p2------------------|
A--------2-3-3-2-------------5-------3-3-5-----------3-3-3p2----------|
E--3-3-5---------5-------------------------------------------5-3------|

Post Intro

e---------------------------------------------------------------------|
B---------------------------------------------------------------------|
G---------------------------------------------------------------------|
D---------------------------------------------------------------------|
A---------------------------------------------------------------------|
E--3-3-3p0-0-0h3p0-3--------------------------------------------------|

Verse

e---3-3-----3-3-----3-3-----3-3-----0-0-----0-0-----0-0-----0-0-------|
B---0-0-----0-0-----0-0-----0-0-----0-0-----0-0-----0-0-----0-0-------|
G---0-0-----0-0-----0-0-----0-0-----0-0-----0-0-----0-0-----0-0-------|
D---0-0-0-0-0-0-0-0-0-0-0-0-0-0-2-2-2-2-2-2-2-2-2-2-2-2-2-2-2-2-------|
A---2-2-2-2-2-2-2-2-2-2-2-2-2-2-2-2-2-2-2-2-2-2-2-2-2-2-2-2-2-2-------|
E---3-3-3-3-3-3-3-3-3-3-3-3-3-3-0-0-0-0-0-0-0-0-0-0-0-0-0-0-0-0-------|

Pre-Chorus
[ Tab from: http://www.guitartabs.cc/tabs/a/adicts/california_tab.html ]
e---------------------------------------------------------------------|
B---------------------------------------------------------------------|
G--12-9-12-9-12-12-12-------------------------------------------------|
D---------------------------------------------------------------------|
A---------------------------------------------------------------------|
E---------------------------------------------------------------------|

Chorus

e--0-0---0--0-0-----0---0-0---0--0-0-----0----------------------------|
B--0-0---0--0-0-----0---1-1---1--1-1-----1----------------------------|
G--0-0---0--0-0-----0---0-0---0--0-0--0--0----------------------------|
D--2-2---2--2-2--2--2---2-2---2--2-2--2--2----------------------------|
A--2-2---2--2-2--2--2---3-3---3--3-3--3--3----------------------------|
E--0-0---0--0-0--0--0-------------------------------------------------|

e------7^-------------------------------------------------------------|
B---------------------------------------------------------------------|
G---------------------------------------------------------------------|
D---------------------------------------------------------------------|
A---------------------------------------------------------------------|
E---------------------------------------------------------------------|

Bridge

e---------------------------------------------------------------------|
B---------------------------------------------------------------------|
G---10-10-10-10-10------10-10-10-----10------------7--5-5-5-5-10------|
D---10-10-10-10-10--12--10-10-10-12--10---8-8-8-8--7--5-5-5-5-10------|
A---8--8--8--8--8---12--8--8--8--12--8----8-8-8-8--5--3-3-3-3-8-------|
E-------------------10-----------10-------6-6-6-6---------------------|

Break

x2 each
e-----------------------|--------------|--------------------------------|
B-----------------------|--------------|--------------------------------|
G---12-12-12-12-12-12-9-|-9-9-9-9-9----|--------------------------------|
D---12-12-12-12-12-12-9-|-9-9-9-9-9-9--|--10-10-10-10-10-10-------------|
A---10-10-10-10-10-10-7-|-7-7-7-7-7-9--|--10-10-10-10-10-10-------------|
E-----------------------|-----------7--|--8--8--8--8--8--8--------------|

any comments/corrections e-mail, rate please
Comments