Adicts - Angel Chords & Tabs

 

Angel Chords & Tabs

Adicts Chords & Tabs

Version: 2 Type: Tab 0 ratings
1 star 2 stars 3 stars 4 stars 5 stars
comments

Angel Tab

Band: The Adicts
Song: Angel


tabbed by jam9383@yahoo.com


Intro

e---------------------------------------------------------------------|
B---------------------------------------------------------------------|
G--7-7-7-7-7-7-7-7----------------------------------------------------|
D--7-7-7-7-7-7-7-7-9-9-9-9-9-9-9-9-5-5-5-5-5-5-5-5-7-7-7-7-7-7-7-7----|
A--5-5-5-5-5-5-5-5-9-9-9-9-9-9-9-9-5-5-5-5-5-5-5-5-7-7-7-7-7-7-7-7----|
E------------------7-7-7-7-7-7-7-7-3-3-3-3-3-3-3-3-5-5-5-5-5-5-5-5----|

Riff/Solo

e---------------------------------------------------------------------|
B-8-8-8-8-8-8-8-8-8-11-9-8-8-8-8-8-8-8-8-11-9--8-9-8-9-11-11-11-11-11-|
G---------------------------------------------------------------------|
D---------------------------------------------------------------------|
A---------------------------------------------------------------------|
E---------------------------------------------------------------------|

Verse
[ Tab from: http://www.guitartabs.cc/tabs/a/adicts/angel_tab_ver_2.html ]
P.M--------------------------------------------------------------------|
e----------------------------------------------------------------------|
B----------------------------------------------------------------------|
G--7-7-7-7-7-7-7-7-----------------------------------------------------|
D--7-7-7-7-7-7-7-7-9-9-9-9-9-9-9-9-5-5-5-5-5-5-5-5-7-7-7-7-7-7-7-7-----|
A--5-5-5-5-5-5-5-5-9-9-9-9-9-9-9-9-5-5-5-5-5-5-5-5-7-7-7-7-7-7-7-7-----|
E------------------7-7-7-7-7-7-7-7-3-3-3-3-3-3-3-3-5-5-5-5-5-5-5-5-----|

Bridge

e---------------------------------------------------------------------|
B---------------------------------------------------------------------|
G---------------------------------------------------------------------|
D---5----4----2-------------------------------------------------------|
A---5----4----2-------------------------------------------------------|
E---3----2----0-------------------------------------------------------|

Chorus

e---------------------------------------------------------------------|
B---------------------------------------------------------------------|
G--7-7-7-7-7-7-7-7----------------------------------------------------|
D--7-7-7-7-7-7-7-7-5-5-5-5-5-5-5-5-9-9-9-9-9-9-9-9-7-7-7-7-7-7-7-7----|
A--5-5-5-5-5-5-5-5-5-5-5-5-5-5-5-5-9-9-9-9-9-9-9-9-7-7-7-7-7-7-7-7----|
E------------------3-3-3-3-3-3-3-3-7-7-7-7-7-7-7-7-5-5-5-5-5-5-5-5----|

any comments/corrections e-mail, rate please
Comments