Adicts - Angel Chords & Tabs

 

Angel Chords & Tabs

Adicts Chords & Tabs

Version: 1 Type: Tab 0 ratings
1 star 2 stars 3 stars 4 stars 5 stars
comments

Angel Tab

-------------------------------------------------------------------------------
			     Angel - The Adicts
-------------------------------------------------------------------------------
Tabbed by: tidus730 and co.
Email:

Tuning:standard    Note: this is RHYTHM guitar, not lead...

e|-----------------------------------------------|
B|-----------------------------------------------|
G|-88888888--55555555----------------------------|
D|-88888888--55555555--66666666--88888888--------| *Intro*
A|-66666666--33333333--66666666--88888888--------|
E|---------------------44444444--66666666--------|

 *Palm Mute: ....
[ Tab from: http://www.guitartabs.cc/tabs/a/adicts/angel_tab.html ]
 "You are an angel,..."
e|-----------------------------------------------|
B|--.......---.......----------------------------|
G|-88888888--55555555---.......---.......--------|
D|-88888888--55555555--66666666--88888888--------| *Verse*
A|-66666666--33333333--66666666--88888888--------|
E|---------------------44444444--66666666--------|

 "And when you bang your gong,..."
e|-------------------------------|
B|-------------------------------|
G|----------10~~-----------------|
D|-6~~~--5~-10~~-----------------| *Pre-chorus*
A|-6~~~--5~-8~~------------------|
E|-4~~~--3~----------------------|

 "My angel, my angel,..."
e|----------------------------------------------------|
B|----------------------------------------------------|
G|-88888888-------------------------------------------|
D|-88888888--66666666--1010101010101010--88888888-----| *Chorus*
A|-66666666--66666666--1010101010101010--88888888-----|
E|-----------44444444--8 8 8 8 8 8 8 8---66666666-----|

Thats primarily it...the interlude/bridge is basically the intro. the final choruses
or outro is played with the verse chords, not the chorus chords. listen to the song
for order. the adicts played this song at the british invasion tour in '04
Comments