Adicts - Angel Chords & Tabs

 

Angel Chords & Tabs

Adicts Chords & Tabs

Version: 1 Type: Bass Tab 0 ratings
1 star 2 stars 3 stars 4 stars 5 stars
comments

Angel Bass Tab

Band: The Adicts
Song: Angel


tabbed by jam9383@yahoo.com


Intro/Verse

D---------------------------------------------------------------------|
G---------------------------------------------------------------------|
A--5-5-5-5-5-5-5-5----------------------------------------------------|
E------------------7-7-7-7-7-7-7-7-3-3-3-3-3-3-3-3-5-5-5-5-5-5-5-5----|

Bridge
[ Tab from: http://www.guitartabs.cc/tabs/a/adicts/angel_btab.html ]
G---------------------------------------------------------------------|
D---------------------------------------------------------------------|
A---------------------------------------------------------------------|
E---3-3-3-3-3---2----0------------------------------------------------|

Chorus

D---------------------------------------------------------------------|
G---------------------------------------------------------------------|
A--5-5-5-5-5-5-5-5----------------------------------------------------|
E------------------3-3-3-3-3-3-3-3-7-7-7-7-7-7-7-7-5-5-5-5-5-5-5-5----|

any comments/corrections e-mail, rate please
Comments