Adhesive - On A Pedastal Chords & Tabs

 

On A Pedastal Chords & Tabs

Adhesive Chords & Tabs

Version: 2 Type: Bass Tab 0 ratings
1 star 2 stars 3 stars 4 stars 5 stars
comments

On A Pedastal Bass Tab

------------------------------------------------------------------
		     ON A PEDASTAL - Adhesive
------------------------------------------------------------------

By: Dave Wilson (nougeypooge@hotmail.com for requests)

Intro (x2)
G|---------------------------------------------------------------|
D|---------------------------------------------------1h2p1-------|
A|------------------------------------------------2-2------------|
E|4-4-3-2-0-0-0-0-0-0-2-0-2-2-2-2-4-4-3-2-0-0-0-0---------2-2-2-2|

Verse (x4)
G|---------------------------------------------------------------|
D|------------------1-1-1-1--2-2-2-2-----------------------------|
A|2-2-2-2--------------------------------------------------------|
E|---------2-2-2-2-----------------------------------------------|
[ Tab from: http://www.guitartabs.cc/tabs/a/adhesive/on_a_pedastal_btab_ver_2.html ]
Chorus (x4)
G|---------------------------------------------------------------|
D|---------------------------------------------------------------|
A|------------------2-2-2-2--------------------------------------|
E|4-4-4-4--0-0-0-0-----------2-2-2-2-----------------------------|
Intro
Verse (x4)
Chorus (x4)

Bridge
G|---------------------------------------------------------------|
D|---------------------------------------------------------------|
A|2-2-2-2-2-2-2-2----------------4-4-4-4-4-4-4-4-----------------|
E|---------------0-0-0-0-0-0-0-0----------------2-2-2-2-2-2-2-2--|

G|---------------------------------------------------------------|
D|1-1-1-1--1-1-1-1-----------------------------------------------|
A|-----------------------------------2-2-2--2-2-2----------------|
E|-----------------4-4-4-4--4-4-4-4----------------2-2-2--2-2-2-2|
Chorus (x12)

Comments