Adema - Unstable Chords & Tabs

 

Unstable Chords & Tabs

Adema Chords & Tabs

Version: 4 Type: Tab 0 ratings
1 star 2 stars 3 stars 4 stars 5 stars
comments

Unstable Tab

                               UNSTABLE
                                ADEMA
                         TABBED BY METALFREEKZ

Intro(after digital delay)

-------------------------------------------------------------------------|
-------------------------------------------------------------------------|
-------------------------------------------------------------------------|
-7-7-7---9-9-9-9-9/-7-7---9-9-9-9-6-10-10---11-11-11-11-11-7-7---8-8-8-6-|
-------------------------------------------------------------------------|
-5-5-5---7-7-7-7-7/-5-5---7-7-7-7-4--8--8----9--9--9--9--9-5-5---6-6-6-4-|

Verse(Light Distortion)
[ Tab from: http://www.guitartabs.cc/tabs/a/adema/unstable_tab_ver_4.html ]
--------------------|
-10-7--9-7-10-9-7-9-|
--------------------|
--------------------|
--------------------|
--------------------|

Chorus

------------------------------------------------------------------------|
------------------------------------------------------------------------|
------------------------------------------------------------------------|
-7-7---7--7--7-7--7--7--7-7--7--7--9-9--9--9--7-7--7--7--7-7--7--7--7-7-|
------------------------------------------------------------------------|
-5-5---5--5--5-5--5--5--5-5--5--5--7-7--7--7--5-5--5--5--5-5--5--5--5-5-|

-----------------|
-----------------|
-----------------|
-7--7--5-5--5--5-|
-----------------|
-5--5--3-3--3--3-|
Comments