Adema - The Way You Like It Chords & Tabs

 

The Way You Like It Chords & Tabs

Adema Chords & Tabs

Version: 3 Type: Tab 0 ratings
1 star 2 stars 3 stars 4 stars 5 stars
comments

The Way You Like It Tab

   
i was 2 lazy to write out the rest of the song (theres 2 much damn overdubbing) but this 
is 100% correct, garunteed

both guitars are 6 strings, tuned down 3 whole steps (low to high): Bb Eb Ab Db F Bb

Intro:
G1-x4
Bb----------------------------------------------------------
F-----------------------------------------------------------
Db----------------------------------------------------------
Ab----------------------------------------------------------
Eb--7-7-7-7-7-7-7-7-7-7-7-7-7-7-7-7-------------------------
Bb----------------------------------------------------------

then: x2
Bb----------------------------------------------------------
F-----------------------------------------------------------
Db------------9-9-------------4-/12-12-12-------------------
Ab----------9------9\---5--------x--x--x--------------------
Eb--------7-----------3---3-2---/10-10-10-------------------
Bb--0-0-0---------------------------------------------------
[ Tab from: http://www.guitartabs.cc/tabs/a/adema/the_way_you_like_it_tab_ver_3.html ]
G2 (1 octave above w/ whammy pedal)
Bb---------------------22-20-19~~~~~~~~~~~~~~~~~~~~~~~~~~~~~
F-----------------------------------------------------------
Db----------------------------------------------------------
Ab----------------------------------------------------------
Eb----------------------------------------------------------
Bb----------------------------------------------------------

Bb-----22-20-19~~~~~~~~~~~~~-------------22-20-19-----------
F----0------------------------------------------------------
Db----------------------------------------------------------
Ab----------------------------------------------------------
Eb----------------------------------------------------------
Bb----------------------------------------------------------
                       (dive w/ whammy pedal)
Bb-22-20-19~~~~~~~~~~~--------------------------------------
F-----------------------------------------------------------
Db----------------------------------------------------------
Ab----------------------------------------------------------
Eb----------------------------------------------------------
Bb----------------------------------------------------------

G3

(rests for first 4 measures)

then: x2
Bb-------------------------------
F--------------------------------
Db-------------------------------
Ab--------------9-9\-5-5-5-4/12--
Eb------------9---x--x-x-x-x-x---
Bb--0-0-0-7-7-----7\-3-3-3-2/10--
Comments