Adema - The Way You Like It Chords & Tabs

 

The Way You Like It Chords & Tabs

Adema Chords & Tabs

Version: 2 Type: Tab 0 ratings
1 star 2 stars 3 stars 4 stars 5 stars
comments

The Way You Like It Tab

   
The Way You Like It-Adema
Adema

Tuning:

Bb Eb Ab Db F Bb


Intro: (fill heard through all the song)

Gtr 2. w/ whammy pedal set up 1 octave.

e------------------22-20-19~~~~~~~~~~~~~~~------22-20-19----------
b-----------------------------------------------------------------
g-----------------------------------------------------------------
d-----------------------------------------------------------------
a-----------------------------------------------------------------
e-----------------------------------------------------------------

Gtr 1.

e-----------------------------------------------------------------
b-----------------------------------------------------------------
g-----------------------------------------------------------------
d-----------------------------------------------------------------
a-7-7-7-7-7-7-7-7-7-7-7-7-7-7-7-7-7-7-7-7-7-7-7-7-7-7-7-7-7-7-7-7-
e-----------------------------------------------------------------

Gtr 3.

e-----------------------------------------------------------------
b-----------------------------------------------------------------
g--------------9-------------------------------4--/12-12-12-12----
d------------9----------9-------------5-------------x--x--x--x----
a--------7----------------------3-------3-2-------/10-10-10-10----
e-0-0--0----------------------------------------------------------

Gtr 1.

e-----------------------------------------------------------------
b-----------------------------------------------------------------
g--------------9--------9-------5-5---5---4----4--/12-------------
d------------9----------x-------x-x---x---x----x----x-------------
a--------7-7------------7-------3-3---3---2----2--/10-------------
e-0-0--0----------------------------------------------------------

Gtr 2.

e--------------------22--20-19------------------------------------
b-----------------------------------------------------------------
g-----------------------------------------------------------------
d-----------------------------------------------------------------
a-----------------------------------------------------------------
e-----------------------------------------------------------------

Verses: 2 gtrs. arr for one.

... donít live ashamed Ďcause feelings changed...

x3
e-----------------------------------------------------------------
b-----------------------------------------------------------------
g-16-16---16-16---16-16---16-16-----------------------------------
d-14-14---14-14---14-14---14-14-----------------------------------
a-14-14---14-14---14-14---14-14-----------------------------------
e-12-12---12-12---12-12---12-12-----------------------------------
[ Tab from: http://www.guitartabs.cc/tabs/a/adema/the_way_you_like_it_tab_ver_2.html ]
e-----------------------------------------------------------------
b-----------------------------------------------------------------
g-16-16---16-16---16-16----14-14---/19-19-19-19-------------------
d-14-14---14-14---14-14----12-12---/17-17-17-17-------------------
a-14-14---14-14---14-14----12-12---/17-17-17-17-------------------
e-12-12---12-12---12-12-------------------------------------------

x3
e-----------------------------------------------------------------
b-----------------------------------------------------------------
g-16-16---16-16---16-16---16-16-----------------------------------
d-14-14---14-14---14-14---14-14-----------------------------------
a-14-14---14-14---14-14---14-14-----------------------------------
e-12-12---12-12---12-12---12-12-----------------------------------

e-----------------------------------------------------------------
b-----------------------------------------------------------------
g-16-16---16-16---16-16-------------------------------------------
d-14-14---14-14---14-14-------------------------------------------
a-14-14---14-14---14-14-------------------------------------------
e-12-12---12-12---12-12-------------------------------------------

Chorus: ...Sometimes i only remember...

e-----------------------------------------------------------------
b-----------------------------------------------------------------
g-----------------9------9\---5----5----4---------/12-12-12-12----
d------------------------x----x----x----x-----------x--x--x--x----
a----------7---7---------7\---3----3----2---------/10-10-10-10----
e-0-0---0---------------------------------------------------------

Fill over chorus 2&3

e-------14h15p14-----15p14----15p12-------------------------------
b----12-----------------------------------12h13-12---12h13-12-----
g-----------------------------------------------------------------
d-----------------------------------------------------------------
a-----------------------------------------------------------------
e-----------------------------------------------------------------

Interlude:

e-----------------------------------------------------------------
b-----------------------------------------------------------------
g-12\9--9---------------------------------------------------------
d-----------------------------------------------------------------
a-10\7--7---------------------------------------------------------
e-----------------------------------------------------------------

Bridge: ...You would always say iíd never be shit...

e-----------------------------------------------------------------
b-----------------------------------------------------------------
g-16-16---16-16---16-16---16-16-----------------------------------
d-14-14---14-14---14-14---14-14-----------------------------------
a-14-14---14-14---14-14---14-14-----------------------------------
e-12-12---12-12---12-12---12-12-----------------------------------


thatís about all

trevor jones
timmy91199@yahoo.ca
Comments