Adema - Speculum Chords & Tabs

 

Speculum Chords & Tabs

Adema Chords & Tabs

Version: 6 Type: Tab 0 ratings
1 star 2 stars 3 stars 4 stars 5 stars
comments

Speculum Tab

   
----------------------------------------------------------------------------
			     Speculum - Adema
-------------------------------------------------------------------------
Tabbed by:Andrew "head" Hedstrom
Email: Hedstrom_korn@hotmail.com

Drop D, then down a half step on all
Tuning:Db-Ab-Db-Gb-Bb-Eb

Here's how you do it, have two ppl on Electric guitar, and one on Acustic, it sounds
the best.  all the other tabs i read were crap and cheap, i promise you this is 100%
correct.  i've only been playing for about 2 yrs but this song is really EASY! HAVE FUN!
Follow closely and you will get it.

Intro is bass but then this comes shortly after
eb|-----------|
Bb|-----------|
Gb|-----------|
Db|-----------|
Ab|---4^4-----|
Db|-----------|
------------------------------------------------------------------------
try this on acustic. Verse 1
eb|---------------------------------|
Bb|---------------------------------|
Gb|---------------------------------|
Db|---4----------4------------------|  x2
Ab|--5-------------5-------4--5-4---|
Db|---------------------4-----------|

eb|--------------------------|
Bb|--------------------------|
Gb|--------------------------|
Db|---4---4----4-------------|    x1            all is on Acustic
Ab|--5---5------5-----4-5-4--|
Db|----------------4---------|

eb|---------------------|
Bb|---------------------|
Gb|---------------------|
Db|---4----------4------|  x1         go to next measure immidiatly.
Ab|--5-------------5----|
Db|---------------------|
-------------------------------------------------------------------------
   Acustic ---- Elct. Gtr. ( clean )
eb|----------|------------------|
Bb|----------|------------------|
Gb|----------|-------15-14~-----|
Db|----------|---16-------------|
Ab|----------|------------------| (Elct. Gtr. Palms their Part, Acustic 
Db|-----4~---|------------------| plays open for their one note.

Chorus - Electric guitar 1 Mild Distortion - acustic sits out.
eb|------------------------------------|
Bb|------------------------------------|
Gb|------------------------------------|
Db|--9-9~------5-5~-----0-0~--4-4~-----|
Ab|--9-9~------5-5~-----0-0~--4-4~-----|
Db|--9-9~------5-5~-----0-0~--4-4~-----|

Chorus - Electric Guitar 2 ( no distortion )
eb|-------9-8---13~---9-8----------|
Bb|--12~-------------------12~-----|
Gb|--------------------------------|
Db|--------------------------------| keep this pattern, listen to song
Ab|--------------------------------|
Db|--------------------------------|
------------------------------------------------------------------
now back to Acustic part

eb|--------------------------|
Bb|--------------------------|
Gb|--------------------------|
Db|---4---4----4-------------|
Ab|--5---5------5-----4-5-4--|
Db|----------------4---------|
[ Tab from: http://www.guitartabs.cc/tabs/a/adema/speculum_tab_ver_6.html ]
            ( clean )
Acustic -- -Elct Gtr. - -back 2 Acustic. - -Elct.gtr.
eb|-------|----------|--------------------|
Bb|-------|----------|--------------------|
Gb|-------|----15-14-|--------------------|
Db|---4---|-16-------|--4-----------------|  x2
Ab|--5----|----------|---5-------4--5-4---|
Db|-------|----------|--------4-----------|

Blend this into  ^that riff, it comes after high plucking riff. use light distortion.
eb|------|
Bb|------|
Gb|--4~--|
Db|--2~--|
Ab|------|
Db|------|

Acustic
eb|-------------------------|
Bb|-------------------------|
Gb|-------------------------|
Db|---4-------4-------------|    x1
Ab|--5---------5-----4-5-4--|
Db|----------------4--------|

eb|--------------------------|
Bb|--------------------------|
Gb|--------------------------|
Db|---4---4----4-------------|   x1
Ab|--5---5------5-----4-5-4--|
Db|----------------4---------|

       Acustic - - - - Electric ( clean )
eb|------------------|--------------|
Bb|------------------|--------------|
Gb|------------------|--------------|
Db|---4-------4------|--0----0------|
Ab|--5---------5-----|-4----4---5~--|
Db|----------------4-|--------------|

---------------------
Chorus 2 - same as first

guitar one  -  play
guitar two  -  play
---------------------
Solo begining
guitar 1
eb|---------|
Bb|---------|
Gb|---------|
Db|--9-9----| x 4 then Chorus
Ab|--9-9----|
Db|--9-9----|

Acustic
eb|--------14-14-|          |--------14-14--------13-13-|
Bb|-12-12--------|          |-12-12---------10-10-------|
Gb|--------------|          |---------------------------|
Db|--------------| x 2 then |---------------------------| x 2
Ab|--------------|          |---------------------------|
Db|--------------|          |---------------------------|

Guitar 2
Solo Riff 
eb|---------------------------------------|
Bb|---------------------------------------|
Gb|---------------------------------------|
Db|---------------------------------------|    x2
Ab|--4-5~--5p4-5-/-9~-10-9~--5p4-5p4-2~-2-|
Db|---------------------------------------|
------------------------------------------------------------

Last Chorus!
Guitar 1 (distortion).  and Acustic (clean) play together
eb|------------------------------------|
Bb|------------------------------------|
Gb|------------------------------------|
Db|--9-9~------5-5~-----0-0~--4-4~-----|
Ab|--9-9~------5-5~-----0-0~--4-4~-----|
Db|--9-9~------5-5~-----0-0~--4-4~-----|

Guitar 2 ( Clean )
eb|-------9-8---13~---9-8----------|
Bb|--12~-------------------12~-----|
Gb|--------------------------------|
Db|--------------------------------| keep this pattern, listen to song
Ab|--------------------------------|
Db|--------------------------------|
---------------------------------------------------
Ending

Play this all to the end. u can figure how many times to play
guitar 1 - no acustic
eb|---------|
Bb|---------|
Gb|---------|
Db|--9-9----|
Ab|--9-9----|
Db|--9-9----|

Guitar 2
eb|--------14-14-|            
Bb|-12-12--------|
Gb|--------------|
Db|--------------| 
Ab|--------------|          
Db|--------------|

THAT's IT!, this song is in my bands upcomming show.  E-mail me any changes.

| /  slide up
| \  slide down
| h  hammer-on
| p  pull-off
| ~  vibrato
| +  harmonic
| x  Mute note
===============================================================================
Comments