Adema - So Fortunate Chords & Tabs

 

So Fortunate Chords & Tabs

Adema Chords & Tabs

Version: 1 Type: Tab 0 ratings
1 star 2 stars 3 stars 4 stars 5 stars
comments

So Fortunate Tab

Adema - So Fortunate
Standard Tuning: EADGBE
[ Tab from: http://www.guitartabs.cc/tabs/a/adema/so_fortunate_tab.html ]
"...I love my child..."
e|------------------------------------------|
B|------------------------------------------|
G|--5~------3~------------------------------|
D|--5~------3~------3~----------------------|
A|--3~------1~------3~----------------------|
E|------------------1~----------------------|

"...Nothing's gonna change my love for you..."
e|------------------------------------------|
B|------------------------------------------|
G|--5--------3------------------------------|
D|--5--------3--------3--------5------------|
A|--3--------1--------3--------5------------|
E|--------------------1--------3------------|

-
-
-
-
-
-
-
-
-
Comments