Adema - Shattered Chords & Tabs

 

Shattered Chords & Tabs

Adema Chords & Tabs

Version: 1 Type: Bass Tab 0 ratings
1 star 2 stars 3 stars 4 stars 5 stars
comments

Shattered Bass Tab

Adema - Shattered
Tuning: Drop D - DADG

Intro/Chorus:
G|---------------------------------------------------|
D|---------------------------------------------------|
A|--3---33--33--3--22-2----33--33--33--2-2--2--------|
D|---------------------------------------------------|
[ Tab from: http://www.guitartabs.cc/tabs/a/adema/shattered_btab.html ]
Verse:
G|---------------------------------------------------|
D|---------------------------------------------------|
A|--3-3-3--------3-3-3--------3-3-3--------3-3-3/10--|
D|---------------------------------------------------|

Bridge:
G|---------------------------------------------------|
D|---------------------------------------------------|
A|--3-3-3-3-3-3-4-4-3-3-3-3-3-3-4-4------------------|
D|---------------------------------------------------|

G|---------------------------------------------------|
D|---------------------------------------------------|
A|--3-3-3-3-3-3-4-4-3-3-3-3-3-3-6-6------------------|
D|---------------------------------------------------|
Comments