Adema - Remember Chords & Tabs

 

Remember Chords & Tabs

Adema Chords & Tabs

Version: 1 Type: Tab 0 ratings
1 star 2 stars 3 stars 4 stars 5 stars
comments

Remember Tab

   
-------------------------------------------------------------------------------
			     Remember - Adema - Planets
-------------------------------------------------------------------------------
Tabbed by:Dogtreat16
Email:dogtreat1990@yahoo.com

                 Heres my second adema tab. I took a little more time with this
one, and its pretty close. Theres two variations played in chorus 2 and 3 but i
usually just mess around with some kind of little mini solo or something there,
i couldent really figure that part out. Any way, yeah enjoy...Remember by Adema:

Tuning: Db Ab Db Gb Bb Eb
   intro                     at this point a second guitar repeats the first intro part
eb|------------------------|--------------------------------------------------|
Bb|------------------------|--------------------------------------------------|
Gb|------------------------|--------------------------------------------------|
Db|--3-5---7-8---8-5-3-10-8|11-1-1111-33-3-3333-55-5-5555-55-5-5555-----------|
Ab|1-----3-----5-----------|11-1-1111-33-3-3333-55-5-5555-55-5-5555-----------|
Db|------------------------|11-1-1111-33-3-3333-55-5-5555-55-5-5555-----------|

verse
eb|---------------------------------------------------------------------------|
Bb|---------------------------------------------------------------------------|
Gb|---7-7-7--5-5-5--3-3-3--2-2/7----------------------------------------------|
Db|--5-5----3-3----1-1----0-0-------------------------------------------------|
Ab|---------------------------------------------------------------------------|
Db|---------------------------------------------------------------------------|
[ Tab from: http://www.guitartabs.cc/tabs/a/adema/remember_tab.html ]
prechorus
eb|---------------------------------------------------------------------------|
Bb|---------------------------------------------------------------------------|
Gb|5-7-5-7-5-7-5-2-----you can figure out the strumming-----------------------|
Db|3-5-3-5-3-5-3-0------------------------------------------------------------|
Ab|---------------------------------------------------------------------------|
Db|---------------------------------------------------------------------------|

 chorus
eb|--------------------------------------------------|
Bb|--------------------------------------------------|
Gb|--------------------------------------------------|
Db|11-1-1111-33-3-3333-55-5-5555-55-5-5555-----------|
Ab|11-1-1111-33-3-3333-55-5-5555-55-5-5555-----------|
Db|11-1-1111-33-3-3333-55-5-5555-55-5-5555-----------|

verse 2

pre-chorus 2

chorus 2

bridge
eb|----------------------------------------------------|-------------------------------|
Bb|----------------------------------------------------|-------------------------------|
Gb|---------------------------------7-7-7-7h8-5-5-7/8-7|-------------------------------|
Db|-5/7-7--5/7-7----5/7-7------------------------------|1-------0--------1-------0-----|
Ab|-3/5-5--3/5-5--8-3/5-5-8-5-3-8-6--------------------|1-------0--------1-------0-----|
Db|----------------------------------------------------|1-------0--------1-------0-----|

chorus 3

outro

well there you have it. Questions/comments send me a line at dogtreat1990@yahoo.com
have fun and use it well :D



| /  slide up
| \  slide down
| h  hammer-on
| p  pull-off
| ~  vibrato
| +  harmonic
| x  Mute note
===============================================================================
Comments