Adema - Refusing Conciousness Chords & Tabs

 

Refusing Conciousness Chords & Tabs

Adema Chords & Tabs

Version: 1 Type: Tab 0 ratings
1 star 2 stars 3 stars 4 stars 5 stars
comments

Refusing Conciousness Tab

Adema Planets - Refusing Conciousness
Tuning - CGCFAD

Intro/Verse
D|-------------------------------|
A|-------------------------------|
F|-------------------------------|
C|-------------------------------|
G|---------2-2-2---------1-1-1-1-| The 1's on this line are sometimes 0's.
C|-1-1-1-1--------0-0-0----------| Listen to the song for them.

Pre-Chorus
D|-----------------------------------------|
A|-----------------------------------------|
F|-----------------------------------------|
C|-----------------------------------------|
G|--14~------17~-----19~------14~-----17~--|
C|-----------------------------------------|
[ Tab from: http://www.guitartabs.cc/tabs/a/adema/refusing_conciousness_tab.html ]
Chorus
D|--------------------------------|----------------------------------------|
A|--------------------------------|----------------------------------------|
F|--------------------------------|-----------------7-8-7-5-7-8-7-5-7-8-7-5|
C|-5-5-5--8-8-10--1-1-1-888-10-33-|-5-5-5--8-8-8-10-7-8-7-5-7-8-7-5-7-8-7-5|
G|-5-5-5--8-8-10--1-1-1-888-10-33-|-5-5-5--8-8-8-10-5-6-5-3-5-6-5-3-5-6-5-3|
C|-5-5-5--8-8-10--1-1-1-888-10-33-|-5-5-5--8-8-8-10------------------------|

Do Verse
Do Pre-Chorus...

Chorus
D|----------------------------|
A|----------------------------|
F|----------------------------|
C|-5-5-5--8-8-10--10101-88-3--|
G|-5-5-5--8-8-10--10101-88-3--|
C|-5-5-5--8-8-10--10101-88-3--|
                   - -
                   Those are 0's, not 10's. 
                   Second part of chorus is the same as first chorus.


Bridge
Do the intro...
Then...

Bridge part 2
D|---------------------|--------------------|
A|---------------------|--------------------|
F|---------------------|--------------------|
C|-10-12-8-6-8-6-88-10-|-10-12-8-6-8-66-8-4-|
G|-10-12-8-6-8-6-88-10-|-10-12-8-6-8-66-8-4-|
C|-10-12-8-6-8-6-88-10-|-10-12-8-6-8-66-8-4-|

Pre-Chorus
D|----------------|
A|----------------|
F|----------------|
C|---5~---8~---10~|
G|---5~---8~---10~|
C|---5~---8~---10~|

Do chorus2....

Outro
D|---------|---|
A|---------|---|
F|-7-8-7-5-|-7-|
C|-7-8-7-5-|-7-|
G|-5-6-5-3-|-5-|----end on that bit.
C|---------|---|
Comments