Adema - Promises Chords & Tabs

 

Promises Chords & Tabs

Adema Chords & Tabs

Version: 3 Type: Tab 0 ratings
1 star 2 stars 3 stars 4 stars 5 stars
comments

Promises Tab

   
Band - Adema
Song - Promises

Tuning: Drop D

Intro:
		Guitar 1
   Em         E         C         A
e|--0---------0---------0---------0--|
B|--0---------0---------1---------2--|
G|--0---------1---------0---------2--|
D|--2---------2---------2---------2--|
A|--2---------2---------3---------0--|
D|--0---------0---------0---------0--|

		Guitar 2
e|-----------------------------------|
B|--8--9-9--8-------------9-9-999-9--|
G|-----------------------------------|
D|-----------------------------------|
A|-----------------------------------|
D|-----------------------------------|

Preverse:
		Guitar 1
   Em         E         C         A
e|--0---------0---------0---------0--|
B|--0---------0---------1---------2--|
G|--0---------1---------0---------2--|
D|--2---------2---------2---------2--|
A|--2---------2---------3---------0--|
D|--0---------0---------0---------0--|

		Guitar 2
e|-----------------------------------|
B|-----------------------------------|
G|----------------------3---------6--|
D|--3---------6---------3---------6--|
A|--3---------6---------1---------4--|
D|--3---------6----------------------|

Verse:
e|-----------------------------------|
B|--8--9-9--8-------------9-9-999-9--|
G|-----------------------------------|
D|-----------------------------------|
A|-----------------------------------|
D|-----------------------------------|

Chorus:
e|-----------------------------------|
B|-----------------------------------|
G|-----------------------------------|
D|--3-3------6-6------1-1-------8-8--|
A|--3-3------6-6------1-1-------8-8--|
D|--3-3------6-6------1-1-------8-8--|

e|-----------------------------------|
B|-----------------------------------|
G|----------------------3---------6--|
D|--3---------6---------3---------6--|
A|--3---------6---------1---------4--|
D|--3---------6----------------------|
[ Tab from: http://www.guitartabs.cc/tabs/a/adema/promises_tab_ver_3.html ]
Verse:
e|-----------------------------------|
B|--8--9-9--8-------------9-9-999-9--|
G|-----------------------------------|
D|-----------------------------------|
A|-----------------------------------|
D|-----------------------------------|

Chorus:
e|-----------------------------------|
B|-----------------------------------|
G|-----------------------------------|
D|--3-3------6-6------1-1-------8-8--|
A|--3-3------6-6------1-1-------8-8--|
D|--3-3------6-6------1-1-------8-8--|

e|-----------------------------------|
B|-----------------------------------|
G|----------------------3---------6--|
D|--3---------6---------3---------6--|
A|--3---------6---------1---------4--|
D|--3---------6----------------------|

Bridge:
e|-----------------------------------|
B|-----------------------------------|
G|-----------------------------------|
D|--4-4--7-6-7-----------0-0--3-2-3--|
A|--4-4------------------0-0---------|
D|--4-4------------------0-0---------|

e|--13-13-13-13-15-15-15-15-11-11-11-11-9-9-9-9--|
B|-----------------------------------------------|
G|-----------------------------------------------|
D|-----------------------------------------------|
A|-----------------------------------------------|
D|-----------------------------------------------|

Chorus:
e|-----------------------------------|
B|-----------------------------------|
G|-----------------------------------|
D|--3-3------6-6------1-1-------8-8--|
A|--3-3------6-6------1-1-------8-8--|
D|--3-3------6-6------1-1-------8-8--|

e|-----------------------------------|
B|-----------------------------------|
G|----------------------3---------6--|
D|--3---------6---------3---------6--|
A|--3---------6---------1---------4--|
D|--3---------6----------------------|

Outro:
e|--13-13-13-13-15-15-15-15-11-11-11-11-9-9-9-9--|
B|-----------------------------------------------|
G|-----------------------------------------------|
D|-----------------------------------------------|
A|-----------------------------------------------|
D|-----------------------------------------------|
Comments