Adema - Promises Chords & Tabs

 

Promises Chords & Tabs

Adema Chords & Tabs

Version: 1 Type: Bass Tab 0 ratings
1 star 2 stars 3 stars 4 stars 5 stars
comments

Promises Bass Tab

   
Adema - Promises
Submitted By: Stand Alone (projectwyze13@hotmail.com)

Tuning: Drop D - D A D G

Intro:
G|----------------------------------------------------------|
D|----------------------------------------------------------|
A|--------------6-6--4-4------------------------------------|
D|--3-3--5-5------------------------------------------------|

Verse:
G|----------------------------------------------------------|
D|----------------------------------------------------------|
A|--------------------4-4-----------------------------------|
D|--3-3--5-5--1-1-------------------------------------------|
[ Tab from: http://www.guitartabs.cc/tabs/a/adema/promises_btab.html ]
Pre-chorus:
G|----------------------------------------------------------|
D|----------------------------------------------------------|
A|--------------6-6--4-4--6-4-------------------------------|
D|--3-3--5-5--------------------6-3-------------------------|

Chorus:
G|-----------------------|----------------------------------|
D|-----------------------|----------------------------------|
A|-------------6-6--4-4--|-------------------4-4--4-2-------|
D|--3-3--5-5-------------|--3-3--5-5--1-1--------------5-3--|

Post-chorus:
G|----------|-----------------------------------------------|
D|----------|-----------------------------------------------|
A|------4---|---1----4--------------------------------------|
D|--3-------|-----------------------------------------------|
Comments