Adema - Pain Inside Chords & Tabs

 

Pain Inside Chords & Tabs

Adema Chords & Tabs

Version: 1 Type: Tab 0 ratings
1 star 2 stars 3 stars 4 stars 5 stars
comments

Pain Inside Tab

   
Band: Adema
Song: Pain Inside
By Jonathan Bissonnette

Tuning B F# B E G# C#

*The lead in the song was hard to pick out, but i tried, Enjoy :-)

intro/Verse

|-------12-----16------12-|
|----14-------------14----|
|-13-------13-----13------|
|-------------------------|
|-------------------------|
|-------------------------|

Chorus
Gtr.1

|----------------|
|----------------|
|----------------|
|-4-4/7-0-0~--2/-|
|-4-4/7-0-0~--2/-|
|-4-4/7-0-0~--2/-|

Gtr.2
[ Tab from: http://www.guitartabs.cc/tabs/a/adema/pain_inside_tab.html ]
|------------------------------------------|
|------14~~----------------14~~------------|
|-13~~------13~~~~---13~~~------14~~/13~~~-|
|------------------------------------------|
|------------------------------------------|
|------------------------------------------|

Bridge (before second chorus)

Gtr.1

|---------|---|
|---------|---|
|-4-----3-|---|
|-4--2--3-|-1-|
|-2--2--1-|-1-|
|----2----|-1-|
            *Add this the first and third time

Gtr.2

|------------|
|-12----11~~-|
|----13------|
|------------|
|------------|
|------------|

Bridge (after second chorus) and Outro

Gtr.1

|-------|
|-------|
|-------|
|-4---0-|
|-4---0-|
|-4---0-|

Gtr.2

|----16/17~~-----17\16~~-|
|-14---------------------|
|-------------14---------|
|------------------------|
|------------------------|
|------------------------|
Comments