Adema - Pain Inside Chords & Tabs

 

Pain Inside Chords & Tabs

Adema Chords & Tabs

Version: 1 Type: Bass Tab 0 ratings
1 star 2 stars 3 stars 4 stars 5 stars
comments

Pain Inside Bass Tab

Adema - Pain Inside
Tuning: Drop D - DADG

Intro/Verse: (palm mute)
G|--------------------------------------|
D|--------------------------------------|
A|--------------------------------------|
D|--00-00-0-000-00-0-000-00-0-000-00-0--|
[ Tab from: http://www.guitartabs.cc/tabs/a/adema/pain_inside_btab.html ]
Chorus:
G|--------------------------------------|
D|--------------------------------------|
A|--6~---9~-----------------------------|
D|------------9~------------------------|

Bridge: (1:12)
G|--------------------------------------|
D|--------------------------------------|
A|--66666666----------------------------|
D|-----------66666666-------------------|

2nd Bridge: (2:12)
G|--------------------------------------|
D|--------------------------------------|
A|--6~------------------6~--------------|
D|------------9~------------------9~----|
Comments