Adema - Giving In Chords & Tabs

 

Giving In Chords & Tabs

Adema Chords & Tabs

Version: 7 Type: Tab 0 ratings
1 star 2 stars 3 stars 4 stars 5 stars
comments

Giving In Tab

------------------------------------------------------------
			Adema Giving in
------------------------------------------------------------

By:Paul_1988@hotmail.com

Im not so sure about the solo but i will work it out and send it in.
[ Tab from: http://www.guitartabs.cc/tabs/a/adema/giving_in_tab_ver_7.html ]
Intro
e|--4-4-4-4-4-4---4-4-4-4-4-4-----|
B|-5-5-----------4-4--------------|
G|--------------------------------|x6
D|--------------------------------|
A|--------------------------------|
E|--------------------------------|

Verse
e|-----------------------------------------------------|
B|-----------------------------------------------------|
G|-----------------------------------------------------|x?
D|-66---8h9p8-99---------11-11---------11-11-----------|
A|-66---------99---6h9p6-11-11---6h7p6-11-11-----------|
E|-44---------77---------9--9-----------9--9---6h7p6---|
Comments