Adema - Giving In Chords & Tabs

 

Giving In Chords & Tabs

Adema Chords & Tabs

Version: 6 Type: Tab 0 ratings
1 star 2 stars 3 stars 4 stars 5 stars
comments

Giving In Tab

Artist: Adema
Song Title: Giving In
Album: Adema
Submitted By: IcEmAn
Tabbed by: J_dogg_0@hotmail.com

Tuning: 1 step down drop D (CGCFAD [low to high])

^=notes with this above them means bend them.
~=notes with this behind them means to give that note a vibrato effect.

INTRO---

guitar 2

D|-------------------------------------------|
A|-------------------------------------------|
F|-------15----15-15-15----15----15-15-15----|  x5
C|----16----16----------15----15-------------|
G|-------------------------------------------|
C|-------------------------------------------|

D|----18--18--18--18----|
A|----------------------|
F|----15--15--15--15----|
C|----------------------|
G|----------------------|
C|----------------------|
(0:01)
This part is played with an echo effect.  The last part gradually gets
louder.


guitar 1

D|----------------------------------------|
A|----------------------------------------|
F|----5h6p5----3h5p3----------------------|  x2
C|----------------------3h4p3-------------|
G|-------------------------------3h4p3----|
C|----------------------------------------|
(0:06)
This part you play softly in the back ground.  It is played using an
octave effect.  Gradually get louder.


BRIDGE 1---

guitar 1

D|--------------------------------------------------------------------|
A|--------------------------------------------------------------------|
F|----------5h6p5------------3h5p3------------------------------------|  x4
C|--8--8-------------4--4-------------1--1----3h4p3----1--1-----------|
G|--8--8-------------4--4-------------1--1-------------1--1----3h4p3--|
C|--8--8-------------4--4-------------1--1-------------1--1-----------|
(0:19)
This part of the song is played using an Octave effect. The octave
effect adds a cool darkness to this part.


guitar 2

D|--------------------------------------------------------------------|
A|--------------------------------------------------------------------|
F|--------------------------------------------------------------------|
C|--8--8--8--8----11--11--11--11----1--1--1--1--1--1--1--1----8--8--8-|
G|--8--8--8--8----11--11--11--11----1--1--1--1--1--1--1--1----8--8--8-|
C|--8--8--8--8----11--11--11--11----1--1--1--1--1--1--1--1----8--8--8-|

D|------------------------------------------------------------|
A|------------------------------------------------------------|
F|------------------------------------------------------------|  x2
C|-8----11--11--11--11----13--13--13--13----16--16--15--15----|
G|-8----11--11--11--11----13--13--13--13----16--16--15--15----|
C|-8----11--11--11--11----13--13--13--13----16--16--15--15----|
(0:19)
Each note in this part represents an up and down stroke.  Other than that
this part is played with a normal distortion.


VERSE 1---

guitar 2

D|----------------------|   |----18--18--18--18----|
A|----------------------|   |----------------------|
F|----15--15--15--15----|   |----15--15--15--15----|
C|----------------------|   |----------------------|
G|----------------------|   |----------------------|
C|----------------------|   |----------------------|
(0:44)
In the verse it is mainly bass.  This guitar part is played in the back
ground.  Gradually get louder than softer again, and at the end play the
second part.  It is played through the entire verse.


CHORUS 1---

guitar 2

D|------------------------------------|
A|--11-------^------------------------|
F|------13--10--10--8--8/13--13~~~----|  x4
C|------------------------------------|
G|------------------6--6/11--11~~~----|
C|------------------------------------|
(1:09)
This part is played with a lighter distortion and an effect that makes
it sound like two guitars are playing it.


guitar 1

D|--------------------------------------|
A|--------------------------------------|
F|--------------------------------------|  x4
C|--8--8----4--4----1--1----1--1--0--0--|
G|--8--8----4--4----1--1----1--1--0--0--|
C|--8--8----4--4----1--1----1--1--0--0--|
(1:09)
This is played in the back ground.  Use just normal distortion.


BRIDGE 2---

guitar 1

D|--------------------------------------------------------------------|
A|--------------------------------------------------------------------|
F|----------5h6p5------------3h5p3------------------------------------|  x2
C|--8--8-------------4--4-------------1--1----3h4p3----1--1-----------|
G|--8--8-------------4--4-------------1--1-------------1--1----3h4p3--|
C|--8--8-------------4--4-------------1--1-------------1--1-----------|
(1:34)
This part of the song is played using an Octave effect. The octave
effect adds a cool darkness to this part.


guitar 2

D|--------------------------------------------------------------------|
A|--------------------------------------------------------------------|
F|--------------------------------------------------------------------|
C|--8--8--8--8----11--11--11--11----1--1--1--1--1--1--1--1----8--8--8-|
G|--8--8--8--8----11--11--11--11----1--1--1--1--1--1--1--1----8--8--8-|
C|--8--8--8--8----11--11--11--11----1--1--1--1--1--1--1--1----8--8--8-|

D|------------------------------------------------------------|
A|------------------------------------------------------------|
F|------------------------------------------------------------|
C|-8----11--11--11--11----13--13--13--13----16--16--15--15----|
G|-8----11--11--11--11----13--13--13--13----16--16--15--15----|
C|-8----11--11--11--11----13--13--13--13----16--16--15--15----|
(1:34)
Each note in this part represents an up and down stroke.  Other than that
this part is played with a normal distortion.

[ Tab from: http://www.guitartabs.cc/tabs/a/adema/giving_in_tab_ver_6.html ]
VERSE 2---

guitar 2

D|----------------------|   |----18--18--18--18----|
A|----------------------|   |----------------------|
F|----15--15--15--15----|   |----15--15--15--15----|
C|----------------------|   |----------------------|
G|----------------------|   |----------------------|
C|----------------------|   |----------------------|
(1:46)
In the verse it is mainly bass.  This guitar part is played in the back
ground.  Gradually get louder than softer again, and at the end play the
second part.


guitar 1

D|-------------|
A|-------------|
F|-------------|  x1
C|-------------|
G|----3h4p3----|
C|-------------|
(1:58)
This part is played during the second verse using the octave effect.
Nothing major.


CHORUS 2---

guitar 2

D|------------------------------------|
A|--11-------^------------------------|
F|------13--10--10--8--8/13--13~~~----|  x4
C|------------------------------------|
G|------------------6--6/11--11~~~----|
C|------------------------------------|
(2:13)
This part is played with a lighter distortion and an effect that makes
it sound like two guitars are playing it.


guitar 1

D|--------------------------------------|
A|--------------------------------------|
F|--------------------------------------|  x4
C|--8--8----4--4----1--1----1--1--0--0--|
G|--8--8----4--4----1--1----1--1--0--0--|
C|--8--8----4--4----1--1----1--1--0--0--|
(2:13)
This is played in the back ground.  Use just normal distortion.


SOLO---

guitar 1

D|---------------------------------------------------------------------|
A|-----------------------------------------------------------11--------|
F|--------------------11-----------------------------------------------|
C|----------11h13p11------13p11--11h13p11----------11h13p11------13p11-|
G|--13--13---------------------------------13--13----------------------|
C|---------------------------------------------------------------------|

D|------------------|
A|------------------|
F|------------------|  x2
C|--10h11p10--------|
G|------------(13)--|
C|------------------|
(2:37)
This is the guitar solo.  Play it using mild distortion and a wah effect.
Play the last note (the G13 in ()) only the second time around, and let
it ring out.


guitar 2

D|--------------------------------------------------------------------|
A|--------------------------------------------------------------------|
F|--------------------------------------------------------------------|
C|--8--8--8--8----11--11--11--11----1--1--1--1--1--1--1--1----8--8--8-|
G|--8--8--8--8----11--11--11--11----1--1--1--1--1--1--1--1----8--8--8-|
C|--8--8--8--8----11--11--11--11----1--1--1--1--1--1--1--1----8--8--8-|

D|------------------------------------------------------------|
A|------------------------------------------------------------|
F|------------------------------------------------------------|
C|-8----11--11--11--11----13--13--13--13----16--16--15--15----|
G|-8----11--11--11--11----13--13--13--13----16--16--15--15----|
C|-8----11--11--11--11----13--13--13--13----16--16--15--15----|
(2:37)
This is in the background being played during the solo.  Use normal
distortion


HARD/HEAVY PART---

guitar 1

D|--------------------------------------|
A|--------------------------------------|
F|--------------------------------------|  x4
C|--8--8----4--4----1--1----1--1--0--0--|
G|--8--8----4--4----1--1----1--1--0--0--|
C|--8--8----4--4----1--1----1--1--0--0--|
(3:15)
Play this using the octave effect


guitar 2

D|------------------------------------|
A|------------------------------------|
F|--5h6p5----3h5p3--------------------|  x4
C|--------------------3h4p3-----------|
G|-----------------------------3h4p---|
C|------------------------------------|
(3:15)
PLay this part using a wah effect, play along to the words sung.


CHORUS 3---

guitar 2

D|------------------------------------|
A|--11-------^------------------------|
F|------13--10--10--8--8/13--13~~~----|  x4
C|------------------------------------|
G|------------------6--6/11--11~~~----|
C|------------------------------------|
(3:40)
This part is played with a lighter distortion and an effect that makes
it sound like two guitars are playing it.


guitar 1

D|--------------------------------------|
A|--------------------------------------|
F|--------------------------------------|  x4
C|--8--8----4--4----1--1----1--1--0--0--|
G|--8--8----4--4----1--1----1--1--0--0--|
C|--8--8----4--4----1--1----1--1--0--0--|
(3:40)
This is played in the back ground.  Use just normal distortion.


CHORUS 4---

guitar 2

D|--18--16---^-------------------|
A|----------18--18--16-----------|
F|----------------------13~~~----|  x2
C|-------------------------------|
G|----------------------11~~~----|
C|-------------------------------|
(4:05)
This part is played with a lighter distortion and an effect that makes
it sound like two guitars are playing it.


guitar 1

D|--------------------------------------|
A|--------------------------------------|
F|--------------------------------------|  x2
C|--8--8----4--4----1--1----1--1--0--0--|
G|--8--8----4--4----1--1----1--1--0--0--|
C|--8--8----4--4----1--1----1--1--0--0--|
(4:05)
This is played in the background using normal distortion.


OUTRO---

guitar 2

D|-------------------------------------------|
A|-------------------------------------------|
F|-------15----15-15-15----15----15-15-15----|
C|----16----16----------15----15-------------|
G|-------------------------------------------|
C|-------------------------------------------|
(4:20)
Play it lightly.  Fade out gradually.
Comments