Adema - Giving In Chords & Tabs

 

Giving In Chords & Tabs

Adema Chords & Tabs

Version: 3 Type: Tab 0 ratings
1 star 2 stars 3 stars 4 stars 5 stars
comments

Giving In Tab

this is my first posted tab blah blah. i dont take full credit for
this tab,someone else tabbed it and i edited it a little bit. i 
mostly play the intro and the main verse. turn your guitar down 
one step. its like drop c (if you ever played godsmack, disturbed,
deftones, etc.) but you bring your big-E string up to D. it's cool
sounds a little bit deeper. you can play it on regular tuning and it
sounds good too, but i personally like this one better. enjoy. 

Intro:

d|-----6---6-6-6-6-6---6----6-6-6-6-6----|
a|---7---7-----------6---6---------------|
f|---------------------------------------|
c|---------------------------------------|
g|---------------------------------------|
d|---------------------------------------|
 
Verse:
[ Tab from: http://www.guitartabs.cc/tabs/a/adema/giving_in_tab_ver_3.html ]
d|-----------|
a|-----4-----|
f|-----------|
c|-----------|
g|-----------|
d|-----------|repeat until chorus
 
d|-------------------------------------------------------------------|
a|-------------------------------------------------------------------|
f|-------------------------------------------------------------------|
c|----6-6--8h9p8----9-9---6h8p6---11-11----------11-11---------------|
g|----6-6-----------9-9-----------11-11--6h7h6---11-11---------------|
c|----4-4-----------7-7-----------9--9-----------9--9---6h7p6--------|
 
 
Chorus:
 
d|---4--2--0----------|
a|------------4--2/7--|
f|--------------------|
c|--------------------|
g|--------------------|
d|--------------------|
 
d|-----------------------------------------------------|
a|-----------------------------------------------------|
f|----------------------11-11-11-11-11-----------------|
c|---6-66-9-99-11-11-11-11-11-11-11-11-----------------|
g|---6-66-9-99-11-11-11--9--9--9--9--9-----------------|
d|---6-66-9-99-11-11-11--------------------------------|
 
 
Solo: (in the video he plays it a lot lower...i dont know where to
put it, once you get this lick try moving it around on the fret board
(wah)

d|--------------------------------4---------------|
a|--------4---------------------------------------|
f|--4h6p4---6p4-4h6p4------4h6p4----6p4-3h4p3-----|
c|---------------------6-4--------------------6---|
g|------------------------------------------------|
d|------------------------------------------------|
 
 
d|----------------------------|
a|----------------------------|
f|----------------------------|
c|----6-6----9-9----11-11-----|
g|----6-6----9-9----11-11-----|
d|----4-4----7-7----9--9------|
 
 
Bridge:
(wah)
d|---------------------------------------|
a|---11h12p11--9h11p9--------------------|
f|---------------------9h10p9------------|
c|-----------------------------9h10p9----|
g|---------------------------------------|
d|---------------------------------------|
 
d|--------------------------------|
a|--------------------------------|
f|--------------------------------|
c|----6-6----9-9----5-5----4-4----|
g|----6-6----9-9----5-5----4-4----|
d|----4-4----7-7----3-3----2-2----|

play around with it and maybe someone else will post a better tab in
an effort to show this one up, for the mean time rock out with this.
it's a fun song, cool video, and's it's not too hard to play. im 
known as "Dizzycowmaster" on the forum go to discussion and make a 
post if you wanna talk to me. later rockers.

Dizzycowmaster

Comments