Adema - Giving In Chords & Tabs

 

Giving In Chords & Tabs

Adema Chords & Tabs

Version: 14 Type: Tab 0 ratings
1 star 2 stars 3 stars 4 stars 5 stars
comments

Giving In Tab

Alright, this is actually my first tab, I'm serious, I noticed a lot of mistakes in
people's tabs, so I am correcting them now, Although, there might be a slight
difference to the way Adema plays it. Its good enough to get by.  Enjoi!

David Hagan
Battallion@hotmail.com

                         Adema - Giving In

 (Intro)
  Guitar 2:
E|-4-4-4-4-4-4-4-4-4-4-4-4-4-4-4-4-4-4-4-4-4-4-4-4-4-4-4-4-4-4-4-4-----------|
B|-5---5-----------4---4-----------5---5-----------4---4---------------------|
G|---------------------------------------------------------------------------|
D|---------------------------------------------------------------------------|
A|---------------------------------------------------------------------------|
D|---------------------------------------------------------------------------|

E|-4-4-4-4-4-4-4-4-4-4-4-4-4-4-4-4-4-4-4-4-4-4-4-4-4-4-4-4-4-4-4-4-----------|
B|-5---5-----------4---4-----------5---5-----------4---4---4-4-4-4-----------|
G|---------------------------------------------------------------------------|
D|---------------------------------------------------------------------------|
A|---------------------------------------------------------------------------|
D|---------------------------------------------------------------------------|

  Guitar 1: (With distortion) x2
E|---------------------------------------------------------------------------|
B|-5---5-----------4---4-----------5---5-----------4---4---------------------|
G|---------------------------------------------------------------------------|
D|---------------------------------------------------------------------------|
A|---------------------------------------------------------------------------|
D|---------------------------------------------------------------------------|

 (Main Riff)
  Guitar 1: (With distortion) x4
E|---------------------------------------------------------------------------|
B|---------------------------------------------------------------------------|
G|---------------------------------------------------------------------------|
D|-6-6-8h9p8-9-9----------2-2-1h2p1-2-2-2-2----------------------------------|
A|-6-6-------9-9-11h13p11-2-2-------2-2-2-2-2-1-1----------------------------|
D|-6-6-------9-9----------2-2-------2-2-2-2----------------------------------|

  Guitar 2: (In sequence with guitar 1) x4
E|---------------------------------------------------------------------------|
B|---------------------------------------------------------------------------|
G|---------------------------------------------------------------------------|
D|---------------------------------------------------------------------------|
A|---------------------------------------------------------------------------|
D|-6-6-------9-9----------11-11-----14-14-14-13-13-13------------------------|


 (Verse)
  Guitar 1: (play continuously and quietly through the verse til chorus)
E|---------------------------------------------------------------------------|
B|-9-9-9-9-9-9-9-9-9-9-9-9-9-9-9-9-9-9-9-9-9-9-9-9-9-9-9-9-9-9-9-9-9-9-9-----|
G|---------------------------------------------------------------------------|
D|---------------------------------------------------------------------------|
A|---------------------------------------------------------------------------|
D|---------------------------------------------------------------------------|

[ Tab from: http://www.guitartabs.cc/tabs/a/adema/giving_in_tab_ver_14.html ]
(Chorus)
  Guitar 2:
E|---------------------------------------------------------------------------|
B|---------------------------------------------------------------------------|
G|---------------------------------------------------------------------------|
D|-6-6-x-x-9--9-9-9-x-x-2--2-2-2-x-x-4--4-4-4-x-x-x-x------------------------|
A|-6-6-x-x-9--9-9-9-x-x-2--2-2-2-x-x-4--4-4-4-x-x-x-x------------------------|
D|-6-6-x-x-9--9-9-9-x-x-2--2-2-2-x-x-4--4-4-4-x-x-x-x------------------------|

  Guitar 1:
E|---------------------------------------------------------------------------|
B|-9-9-----------------------------------------------------------------------|
G|----11----9-------8----6------/----11--11-11--11-11-11-11------------------|
D|---------------------------------------------------------------------------|
A|---------------------------------------------------------------------------|
D|---------------------------------------------------------------------------|

(Verse)

(chorus)

 (Solo)
  Guitar 1: x2
E|---------------------------------------------------------------------------|
B|---------------------------------------------------------------------------|
G|---------------------------------------------11/13-------------------------|
D|------9h11p9-11/13-11-11-9-8-9---------9h11p9------9-9-8-8h9p8-------------|
A|-11-11-------------------------11--11-9------------------------11----------|
D|---------------------------------------------------------------------------|

  Guitar 2: (In sequence with Drummer) x2
E|---------------------------------------------------------------------------|
B|---------------------------------------------------------------------------|
G|---------------------------------------------------------------------------|
D|-6-6-------9-9----------11-11-----14-14-14-13-13-13------------------------|
A|-6-6-------9-9----------11-11-----14-14-14-13-13-13------------------------|
D|-6-6-------9-9----------11-11-----14-14-14-13-13-13------------------------|


  Guitar 1: (add a bend to each last note)
E|---------------------------------------------------------------------------|
B|----11h12p11--9h11p9-------4h5p4-------------------------------------------|
G|---------------------------------------------------------------------------|
D|---------------------------------------------------------------------------|
A|---------------------------------------------------------------------------|
D|---------------------------------------------------------------------------|

  Guitar 2:
E|---------------------------------------------------------------------------|
B|---------------------------------------------------------------------------|
G|---------------------------------------------------------------------------|
D|-6-6-------2-2----------1-1-------0-0-0-0----------------------------------|
A|-6-6-------2-2----------1-1-------0-0-0-0----------------------------------|
D|-6-6-------2-2----------1-1-------0-0-0-0----------------------------------|

  (chorus)

  Guitar 1: (Sustained G# to end it)
E|---------------------------------------------------------------------------|
B|--9------------------------------------------------------------------------|
G|---------------------------------------------------------------------------|
D|---------------------------------------------------------------------------|
A|---------------------------------------------------------------------------|
D|---------------------------------------------------------------------------|

  Guitar 2: (quietly play and gradually get quieter)
E|-4-4-4-4-4-4-4-4-4-4-4-4-4-4-4-4-4-4-4-4-4-4-4-4-4-4-4-4-4-4-4-4-----------|
B|-5---5-----------4---4-----------5---5-----------4---4---------------------|
G|---------------------------------------------------------------------------|
D|---------------------------------------------------------------------------|
A|---------------------------------------------------------------------------|
D|---------------------------------------------------------------------------|
Comments